Аккорды «Queen»

Queen
Queen (в переводе с англ. — «Королева», произносится «Куи́н») — британская рок-группа, добившаяся широчайшей известности в период с середины 70-х до середины 90-х годов XX столетия. Queen является одной из наиболее успешных групп в истории рок-музыки, общий мировой тираж их альбомов превышает 300 миллионов. Средства массовой информации называют группу «культовой» и пишут, что она и по сей день имеет сотни миллионов поклонников. Песни Queen «We Will Rock You» и «We Are the Champions» являются двумя… Читать полностью... Queen (в переводе с англ. — «Королева», произносится «Куи́н») — британская рок-группа, добившаяся широчайшей известности в период с середины 70-х до середины 90-х годов XX столетия. Queen является одной из наиболее успешных групп в истории рок-музыки, общий мировой тираж их альбомов превышает 300 миллионов. Средства массовой информации называют группу «культовой» и пишут, что она и по сей день имеет сотни миллионов поклонников. Песни Queen «We Will Rock You» и «We Are the Champions» являются двумя самыми известными песнями современного мира. Также очень известными песнями группы являются «Bohemian Rhapsody», «The Show Must Go On», «Don't Stop Me Now», «Innuendo», «Radio Ga Ga», которые большинство критиков считают классикой рока. Группой было выпущено пятнадцать студийных альбомов, пять концертных и многочисленные сборники. Восемнадцать альбомов «Queen» занимали первые места в чартах разных стран. Концертные выступления группы также были признаны одними из самых ярких и значимых за всю историю рока. Широкую известность получили и видеоклипы «Queen» за новаторство в области спецэффектов и монтажа. В частности, снятый в 1975 году ролик на песню «Bohemian Rhapsody» называют ключевым в истории музыкальных видеоклипов, поскольку его успех вдохновил развитие этой индустрии. После смерти Фредди Меркьюри, вокалиста Queen, группа практически прекратила студийную деятельность. Однако Брайан Мэй и Роджер Тейлор продолжили гастролировать под названием «Queen + Paul Rodgers» и исполнять как проверенные хиты, так и новый материал. Состав группы Фредди Меркьюри (Freddie Mercury, 1946—1991) Настоящее имя Фарух Булсара (Farrokh Bulsara) — фортепиано, вокал, гитара. Автор песен «Killer Queen», «Bohemian Rhapsody», «Somebody to Love», «We Are the Champions», «Crazy Little Thing Called Love», «Innuendo» и др. Брайан Мэй (Brian May, 1947) — гитары. Автор песен «We Will Rock You», «Tie Your Mother Down», «Who Wants to Live Forever», «Hammer to Fall», «I Want It All», «The Show Must Go On» и др. Джон Дикон (John Deacon, 1951) — бас-гитара, ритм-гитара. Автор песен «You're My Best Friend», «Another One Bites the Dust», «I Want to Break Free», «One Year of Love» и др. Роджер Тэйлор (Roger Taylor, 1949) — ударные. Автор песен «Radio Ga Ga», «Heaven for Everyone», «A Kind of Magic», «These Are the Days of Our Lives» и др. После смерти Меркьюри Джон Дикон перестал принимать участие в делах группы, за исключенеим разовых акций (например, концерты памяти Меркьюри в 1992 и 1997 годах). В настоящее время группа Queen представлена только Брайаном Мэйем и Роджером Тейлором. Происхождение У истоков основания группы стояли творческие эксперименты её участников: студенты Брайан Мэй и Тим Стаффел в Великобритании в 1964 году основали группу «1984» (по одноименному роману Джорджа Оруэлла), позже (в 1968 году) преобразовавшуюся в «Smile». Брайан повесил объявление в стенах своего «Империал колледж». В нём говорилось, что группе требуется барабанщик для игры в стиле Митча Митчелла и Джинджера Бейкера. На него откликнулся студент-дантист Роджер Тейлор. Он тогда показался Мэю и Стаффелу лучшим вариантом, поразив их точностью настройки барабанов. Главным достижением «Smile» стало выступление на разогреве у «Pink Floyd». Однако из-за напряжённой учёбы и отсутствия какого бы то ни было менеджмента весной 1970 года трио распалось: Тим Стаффел покинул группу. Мэй и Тейлор не собирались бросать музыкальную карьеру и поделились своими творческими амбициями с другом и соседом по комнате Стаффела Фредди (Фарухом) Булсарой. Он часто посещал выступления «Smile», но Мэй и Стаффел даже не подозревали, что он вообще умеет петь. Фредди имел весьма четкое представление, какими должны быть выступления и сценическая работа группы. Попав в состав нового коллектива, он придумал для него название «Queen» и разработал логотип, а себе взял псевдоним Фредди Меркьюри. Теперь группа состояла из вокалиста-клавишника, гитариста и ударника. Первоначально на роль бас-гитариста был приглашен старый знакомый Роджера Тейлора по Корнуольской группе «The Reaction» Майк Гроуз (Mike Growse), который выступил на первых двух концертах группы (27 июня в городском зале г. Труро (Truro City Hall, Truro) и 12 июля в «Империал колледже»). Впоследствии его заменил весьма одаренный басист Барри Митчелл (Barry Mitchell). Но, уставший от музыкального бизнеса, он покинул группу в начале 1971 года. Лишь два выступления продержался следующий басист группы, Даг Боги (Doug Bogie). В феврале 1971 года на лондонской дискотеке Брайан Мэй и Роджер Тейлор познакомились с опытным уже в те годы бас-гитаристом Джоном Диконом, приехавшим на учебу в Лондон из родного города Лестер. Пройдя прослушивание, Джон занял позицию басиста группы и стал четверым постоянным звеном в составе, который продержался без малого 21 год. История творчества Хотя некоторые критики отмечают в раннем творчестве группы влияние других коллективов, материал, записанный «Queen», с самого начала отличался собственным стилем прогрессив-рока, который создавался за счёт замысловатых аранжировок, неповторимого звука электрогитары Брайана и проникновенных вокальных партий. Сам Меркьюри не раз отмечал, что их группа «выросла» на «Led Zeppelin» и Джими Хендриксе. 1973 — год выхода первого альбома «Queen» с одноимённым названием, в который была включена песня трио «Smile» «Doing All Right». Однако ставку ребята сделали на песню «Keep Yourself Alive», выпустив ее дебютным синглом (1972). Этот альбом записывался в течение двух лет, в те моменты, когда студия звукозаписи была свободна, параллельно с учёбой участников группы. В этом же году «Queen» даёт первые самостоятельные концерты в Великобритании, Германии и Люксембурге. До этого они участвовали в турне других групп на разогреве. 1974 — альбом «Queen II» стал первым прорывом и занял пятое место в британском хит-параде, несмотря на то, что отзывы критиков были отрицательными. Альбом обвинялся в недоделанности и несамостоятельности, однако, по свидетельству Брайана Мэя, никто из группы не нашел альбом плохим. Альбом этого же года «Sheer Heart Attack» дошёл до второй строчки чартов в Великобритании. Композиции альбома («Killer Queen», «Now I'm Here») относятся к хитам группы, а «Stone Cold Crazy» считается классикой хэви-метала (позже вошла в репертуар группы «Metallica»). Группа участвует в австралийском Sunbury Music Festival и даёт первые концерты в Швеции и Финляндии. Коллектив выпустил свою первую видеозапись на песню — «Killer Queen». 1975 — альбом «A Night at the Opera» произвёл фурор, его до сих пор называют величайшим произведением «Queen». Разные источники указывают этот альбом в числе наилучших альбомов современной музыки. Альбом занял 230 строчку в списке «500 величайших альбомов всех времён по версии журнала Rolling Stone». В Англии альбом стал четырежды платиновым. Самой известной песней этого альбома является «Bohemian Rhapsody» — длинная шестиминутная композиция, соединившая в себе черты рок и поп-музыки, оперы и отдельные мотивы фольклора. Стандартной в те годы считалась трёхминутная песня, но «Queen» создали шестиминутную песню. Через четверть века в Великобритании её назвали песней тысячелетия[15]. На эту песню был снят видеоклип, который согласно опросу, организованному телефонной компанией O2, британцы считают лучшим клипом всех времён. В клипе применены оптические спецэффекты: съёмка через шестигранную призму и дублирование лиц музыкантов. К этому же альбому были сняты клипы «You're My Best Friend» и «Love of My Life», последняя, кстати, в том самом концертном варианте с гитарой. В поддержку альбома «Queen» даёт концерты в США, Канаде, Японии и, конечно же, в Великобритании. 1976 — альбом «A Day at the Races», ставший логическим продолжением «A Night At The Opera», вызвал бурю негодования у критиков. «Queen» обвиняли в бесплодной попытке повторить предыдущий альбом, и его влияние действительно заметно. Брайан Мэй говорил, что все песни готовились одновременно, просто одни вышли в 1975, а другие — в 1976 году. Тем не менее, «A Day At The Races» занял 1 место в британском хит-параде, а песня «Somebody to Love» стала хитом. Сокращённая версия композиции «Tie Your Mother Down» с тех пор игралась на большинстве концертов «Queen». Кроме того, к «Somebody To Love» и «Good Old-Fashioned Lover Boy» были сняты клипы. Кроме того, группа дает грандиозный бесплатный концерт в Гайд-парке, собирая около 170 тысяч человек, устраивает турне по Шотландии, США, Японии и Австралии. 1977 — выходит пластинка «News of the World», в которой «Queen» меняют курс на более жесткую и порой агрессивную музыку. Этот диск принёс группе три суперхита «We Will Rock You», «Spread Your Wings» и «We Are the Champions», но в остальном был не столь успешен, дошёл до четвёртой строчки в Великобритании и третьей в США. Группа снова даёт концерты в Швеции, проводит туры по Северной Америке и Европе. 1978 — выходит «Jazz» — самый скандальный альбом группы. Он отличается более лёгким саундом, поэтому обвинялся критиками в «попсовости». Однако главным поводом для скандала стал клип к песне «Bicycle Race», в котором демонстрировались десятки обнажённых девушек на велосипедах. Клип запретили к показу в США как порнографический. Композиция «Mustapha», шедшая на пластинке под первым номером и представлявшая собой вокальный эксперимент Меркьюри на арабском языке под мощный гитарный саунд, тоже оказалась непонятой. «Let Me Entertain You» оказалась ближе к хэви-металу, но отлично вписалась в этот альбом. Ударный трек диска — «Don't Stop Me Now» — одна из лучших песен «Queen», написанных Фредди Меркьюри. Это заряд энергии, который затем попадёт и в сборник «Greatest Hits». На «Fat Bottomed Girls», «Bicycle Race» и «Don’t Stop Me Now» были сняты видеоклипы. Стильная обложка альбома была навеяна рисунком на берлинской стене, который увидели музыканты во время поездки по городу. Несмотря на критику, «Jazz» поднялся до второй строчки в Великобритании и до шестой в США. Группа во время тура Jazz Tour 1979 — увидел свет «Live Killers» — концертный сборник «Queen», в который вошли концертные версии самых известных песен группы. Он выходит вместо нового студийного альбома — музыканты посвящают себя концертам. Меркьюри впервые выходит на сцену с гитарой Fender Telecaster, для того чтобы исполнить новую композицию «Crazy Little Thing Called Love», примечательно, что это единственная песня, на которой Меркьюри играет на гитаре, которая скоро войдет в альбом «The Game», а пока выпущена в виде сингла. Уже через год все увидят совсем другую «Queen», группу, которая станет олицетворением рок-музыки 80-х и одним из самых популярных по сей день коллективов в мире. С 1980 начинается новый период в творчестве «Queen». В течение последующих 6 лет группа будет разрабатывать свой собственный стиль, совершенно отличный от того, что музыканты демонстрировали в предыдущее десятилетие. Группа постепенно отошла от глэм-рока, а Меркьюри расстался со своим прежним сценическим образом: постригся, отрастил усы, перестал выступать в трико. 1980 — вышел альбом «The Game». Он открыл новую эру не только в творчестве группы, но и во всей рок-музыке. Меркьюри считал его лучшим альбомом группы. Группа отказалась от своих предубеждений и записала альбом с использованием синтезатора. До этого синтезаторы принципиально и декларативно (с надписью NO SYNTHESIZERS на обложке) отвергались как не вяжущийся со стилем и звучанием группы инструмент, который с легкостью заменяли многочисленные наложения звука гитары Мэя «Red Special» и усилителя «Deacy» (подарок Джона Дикона) . Композиции с этой пластинки неизменно звучали на каждом концерте, а некоторые из них относятся к лучшим, созданным «Queen». «Play the Game» — титульная песня диска, сопровождалась несколько необычным клипом. На заднем плане в нем горит огонь, в котором впоследствии растворяются музыканты — одно из первых применений графики. Концертную версию «Play the Game» Меркьюри играл на рояле. Особенным успехом пользовалась песня Дикона «Another One Bites the Dust». Эта вещь относится к несвойственному для «Queen» стилю. Его можно назвать диско-фанк. «Another One Bites the Dust» — определенно одна из самых удачных песен группы, запоминается невероятными басовыми партиями и характерным вокалом. Меркьюри сам очень любил эту песню, и весь альбом разрабатывался с учётом её характера. Идея себя оправдала — «The Game» был построен тематически, а не являлся просто сборником песен. Тогда же группа записывает музыку к фантастическому фильму «Флэш Гордон». Он был неплохо принят в Великобритании, но провалился в американском прокате. Нужно отметить, что во «Flash Gordon» группа впервые использует синтезатор как доминирующий инструмент и делает это весьма профессионально. 1981 — выпускается сборник «Greatest Hits». Вместе с Дэвидом Боуи записывается песня «Under Pressure», которая пока что выходит в виде сингла, но уже пользуется огромным успехом, достигнув первой позиции как в Англии, так и в ряде других стран. 1982 год ознаменовался грандиозными концертными турне: «Queen» дала около 70 концертов в Великобритании, Западной Европе, США, Канаде и Японии). Вышел новый альбом «Hot Space», главным хитом которого стала та самая «Under Pressure», исполненная с Дэвидом Боуи. Британское телевидение снимает фильм о концерте, который в 2004 году появится под названием «Queen on Fire — Live at the Bowl». 1983 — группа ненадолго приостанавливает работу, все музыканты работают над сольными проектами. 1984 — альбом «The Works» занял второе место в хит-парадах Великобритании. Песня «Radio Ga Ga» возглавила хит-парады в 19 странах мира. Бурю эмоций вызвала песня «I Want to Break Free», точнее, видеоклип, снятый на неё. Основная часть сюжета клипа разворачивается в декорациях популярнейшего британского телесериала «Coronation Street», а музыканты группы облачены в наряды женских персонажей сериала. Скандальность клипа, впрочем, не помешала самой песне стать официальным гимном Африканского Национального Конгресса. Группа выступает на фестивале «Golden Rose» в Монтрё, запись можно увидеть на DVD «Greatest Video Hits II». 1985 — «Queen» участвует в фестивале «Rock in Rio». Позднее это выступление появится на DVD, как и сыгранный 11 мая концерт в Токио. 13 июля 1985 года группа с триумфом выступила на крупномасштабном благотворительном концерте «Live Aid». Спустя 20 лет это выступление признают лучшим из спетых исполнителями «вживую». После этого концерта Брайан Мэй сказал, что именно тогда испытал настоящую гордость за свою работу. «„Queen“ — самая лучшая группа в мире на сегодняшний день!» — заявил гитарист. 1986 — «Queen» написала саундтрек к фантастическому фильму «Горец» и положила его в основу своего нового альбома «A Kind Of Magic». Альбом пользовался огромным успехом. Музыканты организовали «Magic Tour» — серию концертов по всей Европе. Три самых грандиозных концерта в Лондоне, Небуорте и Будапеште собрали 400.000 человек, а концерт в Будапеште стал первым выступлением западной рок-группы в истории Восточной Европы вообще и Венгрии в частности. Сам тур привлек около миллиона человек по всей Европе. Ничего подобного не знала ни одна рок-группа или рок-певец со времен битломании 60-х годов. Последний концерт тура и группы с Меркьюри прошел 9 августа 1986 года в Небуорте (графство Хертфордшир) и собрал приблизительно 120.000 — 140.000 человек. «Magic Tour» станет последним концертным туром группы. С этого года начались слухи о болезни Меркьюри. Он отрицал это, ссылаясь на свой здоровый внешний вид. 1989 — альбом «The Miracle» очень резко отличается от всех предыдущих работ. У Меркьюри немного изменился голос, он сбрил усы и стал одеваться более строго. Вместе с альбомом выходит сразу пять синглов. Выход клипов подогревает слухи о болезни Меркьюри, которые теперь активно опровергаются как музыкантами группы, так и самим Меркьюри. Обложка «The Miracle» тоже стала поводом для споров, но, скорее всего, именно из-за возможной болезни певца. Титульной песней альбома стала пятиминутная композиция «The Miracle». Изменение голоса, возможно, произошло из-за непосредственного влияния болезни, но доподлинно известно, что в начале 1990 года Меркьюри бросил курить в связи с развивающейся болезнью лёгких. 1990 — не появляется никакой информации о группе, все её члены сообщают, что «всё нормально», однако столь резкая смена стиля жизни и имиджа вызвала закономерное удивление и тревогу фанатов. «Queen» получила музыкальную премию «Brit Awards», и этот выход окажется последним появлением Меркьюри на публике. Он не стал произносить речь, сказав просто: «Thank you, good night» («Спасибо, хорошего вечера»). 1991 — последний год фактического существования «Queen». Незадолго до смерти Меркьюри вышел альбом «Innuendo» («Косвенный намёк»). Многие считают его одним из наиболее выдающихся произведений «Queen». Альбом открывается песней, которая так и называется — «Innuendo». По своей композиции она напоминает «Bohemian Rhapsody» — всё те же шесть минут вместо стандартных трёх, сочетание различных музыкальных направлений. Этот трек стал ещё одним отходом от принципов: кроме отсутствия синтезаторов на всех альбомах декларировалось, что все треки исполнены исключительно Queen, без привлечения сессионных музыкантов. Фрагмент, обозначенный Spanish Minstrel Guitars, сыгран Стивом Хау, бывшим гитаристом Yes. На вторую песню — «I'm Going Slightly Mad» — был снят гротескный чёрно-белый видеоклип с участием пингвинов и актера, одетого в костюм гориллы (поговаривают, что это был Элтон Джон). Однако самой известной песней альбома, вне всякого сомнения, является последняя — «The Show Must Go On», в которой лирический герой задаётся вопросом о смысле существования и выражает надежду на обретение физической и душевной свободы после смерти. В её припеве при дословном переводе говорится: Шоу должно продолжаться. Моё сердце раскалывается, Мой грим осыпается, Но моя улыбка остаётся . «The Show Must Go On» — одна из самых известных песен «Queen». Но не зная историю группы, невозможно понять, каких усилий стоила Меркьюри её запись. Голос Меркьюри не выдает его болезнь. Трудно представить, каково исполнять такую песню, зная о скорой смерти. Написанная Брайаном Мэем, она, кажется, была создана специально для Меркьюри. В клипе на эту песню, склеенном из кусочков прежних видеоработ, Меркьюри чуть ли не впервые появляется на какие-то пару секунд не в образе мачо или шута, или громовержца — просто очень добродушная улыбка, эдакий удивленный добряк подмигивает: мол, и сам не верит, что все это было именно с ним. Но при этом только крохотная часть его жизни смогла уместиться в нескольких минутах его последнего клипа. Песня «The Show Must Go On» по праву вошла в сотню лучших песен XX века. Она имеет несметное количество кавер-версий, исполненных, пожалуй, всеми выдающимися певцами недавней современности. Перед самой смертью Меркьюри распорядился передать все доходы от переиздания песни «Bohemian Rhapsody» благотворительному фонду Терренса Хиггинса по борьбе со СПИДом. Был выпущен сингл «Bohemian Rhapsody» /«These Are the Days of Our Lives» с двумя сторонами А. Это был первый в мире музыки случай, когда одна и та же песня занимала 1-ое место хит-парадов дважды, в разных десятилетиях. Незадолго до смерти Фредди заставил Брайана Мэя выпустить сольный сингл «Driven By You», мотивируя тем, что это самый удачный момент. 23 ноября 1991 года Фредди сообщил миру, что он действительно был болен СПИДом, а ровно через день он умер в своем Кенсингтонском особняке. 1992 20 апреля на лондонском стадионе Уэмбли состоялся концерт памяти Фредди Меркьюри, организованный оставшимися музыкантами группы. В тот день на сцену вышли те, кого Меркьюри считал своими друзьями, с кем работал лично: Джо Эллиот, Джордж Майкл, Эксл Роуз, Элтон Джон, «Металлика», Роберт Плант, Дэвид Боуи, Сил, Роджер Долтри, Энни Леннокс, Лиса Стэнсфилд и любимая актриса Меркьюри — Лайза Минелли. Спайк Эдни, отыгравший на клавишных множество концертов с «Queen», назвал этот концерт «Fred Aid», напоминая о феноменальном выступлении «Queen» в 1985 году на «Live Aid». 1995 Вышел последний студийный альбом группы «Queen» под названием «Made in Heaven» («Сделано на небесах»), составленный из сессионных записей группы весны 1991 года, выполненных в студии Mountain, двух заново аранжированных композиций Меркьюри с его сольного альбома «Mr. Bad Guy» («Made in Heaven», «I Was Born to Love You»), одной композиции группы Роджера Тейлора The Cross («Heaven for Everyone») и некоторых композиций, до этого не выходивших в свет. Примечательно, что «A Winter's Tale» — последняя композиция, написанная Меркьюри, а «Mother Love» стала последней записью вокала Меркьюри. Группа после смерти Фредди Меркьюри После смерти Меркьюри на отдельных концертах и записях Queen солировали Джордж Майкл, Робби Уильямс и группа «Five». Однако самым успешным оказался союз музыкантов с представителем британского блюз-рока Полом Роджерсом. Проект называется «Queen + Paul Rodgers. Return of the Champions». Джон Дикон отказался от участия в новом составе, заявив: «Нет смысла продолжать. Заменить Фредди невозможно». После 1995 года он прекратил свою музыкальную карьеру, только однажды появившись на сцене в 1997 году на съёмках клипа к песне No-One But You. В 2002 году в Лондоне был представлен мюзикл «We will Rock You», созданный на основе музыки «Queen». Мюзикл имел успех, был поставлен в разных странах, в частности в Москве с октября 2004 года по февраль 2005-го. В 2006 году Брайан Мэй объявил, что вместе с Полом Роджерсом будет записан новый студийный альбом. 31 декабря 2007 года вышел новый сингл группы Say it's Not True[20], написанный Тэйлором. Песня уже исполнялась на концертах группы, и это стал первый студийный сингл группы, записанный с Полом Роджерсом. Сингл достиг 90-го места в британском чарте. В 2008 году организован новый тур группы. Европейское турне открылось благотворительным концертом в Харькове. Концерт под названием «Life must go on!», организованный украинским Фондом Елены Франчук (Пинчук) «АНТИСПИД», прошел вечером 12 сентября на второй по величине в Европе и седьмой в мире городской площади — Площади Свободы, и собрал самую большую, по оценкам международных экспертов, за всю историю группы аудиторию — 350 тысяч человек. Было сыграно 28 композиций. Гитарист Брайан Мэй заявил, что впервые «Queen» собрал столько людей на одном концерте и написал в тот же день в своём блоге: «Это было первое шоу тура… Для 350 тысяч харьковчан.. В это трудно поверить… Это не описка… Более четверти миллиона прекрасных жителей Харькова собрались на площади Свободы и зажгли нас! Они скандировали, смеялись, кричали и плакали… Это была встреча, которую трудно себе представить. Мы были вдохновлены, потрясены и даже порой слишком эмоциональны… Это был концерт с кучей спонтанных и временами безрассудных моментов». Вход на площадь был бесплатным и музыканты не получили гонорар за выступление — принимающая сторона только оплатила расходы на проведение концерта и пребывание. 15 и 16 сентября 2008 года прошли концерты «Queen + Paul Rodgers» в России, в Москве, в спортивном комплексе Олимпийский. Музыкальный стиль Историки рок-музыки относят Queen к категории хард-рока и глэм-рока, характерного для 1970-х. Их часто сравнивали с такими современниками, как Led Zeppelin, Дэвид Боуи[3], Roxy Music. Queen начинали как традиционная хард-рок-группа, однако эксперименты привносили в их музыку элементы из направлений, далеких от рока. Как отмечает критик Филип Аусландер, некоторые песни Queen «граничили с претензией на джаз или классическую музыку». Питер Бакли называет музыку Queen «комбинацией хард-рока, артистизма и поп-музыки, опередившей своё время». Яркой особенностью звучания группы является хор из Меркьюри, Мэя и Тейлора который стал визитной карточкой группы. Наиболее удачное звучание этого хора есть в альбомах «A Night at the Opera» и «A Day at the Races». Другой яркой чертой группы являются различные многоголосные партии для одного человека (например, для песни «Bohemian Rhapsody» Меркьюри записывал свой голос 180 раз). Скрыть...
Популярные аккорды Queen:
алфавиту | просмотрам | случайно
  • Ami     Asus2   Asus4   Ami       F      F5-
    E|-0-0-0-0-0-0-0-0--0-0-0-0-0-0-0-0--1-1-1-1-1-1-1-1-|
    B|-1-1-1-1-0-0-0-0--3-3-3-3-1-1-1-1--1-1-1-1-0-0-0-0-|
    G|-2-2-2-2-2-2-2-2--2-2-2-2-2-2-2-2--2-2-2-2-2-2-2-2-|
    D|-2-2-2-2-2-2-2-2--2-2-2-2-2-2-2-2--3-3-3-3-3-3-3-3-|
    A|---------------------------------------------------|
    E|---------------------------------------------------|…
  • F                      Am7           Dm7
    Tonight, I`m gonna have myself a real good time
            Gm7 C7         F              F7    Bb
    I feel alive, and the world, turning inside out, yeah
         Gm7               D7…
  • Just one thing, in the first part you can change the bend, for a hammer and pull off (13-
    15-13)  G           B7            E-     G7        C                  F         C
    E-----------------------------------------------------------12-13-12----------
    B-12-11-12-------10-9-10----------------------------------13---------13bend15-
    G------------12-------------11-12-11--9-10-9------------12--------------------
    D--------------------------------------------11slide14------------------------
    A-----------------------------------------------------------------------------
    E-----------------------------------------------------------------------------
    
    G…
  • Gm
    Open your eyes
         Bb                    Eb
    Look up to the skies and see
    Cm(7)                 F
    I`m just a poor boy, I need no sympathy
    B    Bb     A   Bb   B     Bb    A      Bb
    easy come, eays go, little high, little…
  • Intro:
     ------
     Piano:
     N.C.
     Caaaan.... anybody find me, somebody to love....
     
     Piano: (no words:)  note  use Eb or G#/G
        G#              Eb     Fm    C#       Eb
     e:---------------------------------------------|…
  • Verse 1:
     
     C			   F/C                C    F        Bb/F  F
     Sometimes I get to feeling I was back in the old days long ago
     
     C				      F/C      C    F       Bb/F  F
     When we were kids, when we were young things…
  • G|--------5-----6-----------------------|
    D|-146-6---6-8--------------------------|
    A|-----------------555555-222222--------|
    E|-------------------------------444444-|
    
    G|-------------------------------|
    D|----10-------11-------10/18-18-|
    A|-11----11-13----13-11----------|
    E|-------------------------------|
    
    G|-------------------------------------|
    D|----10-------11-------10-11-13-13/18-|
    A|-11----11-13----13-11----------------|
    E|-------------------------------------|
    
    G|---------------------------------13-|
    D|-----10--------11----------13-------|
    A|-11-----11-13-----13-13/15----15----|
    E|------------------------------------|
    
    G|------------------------------------|
    D|-----10--------11----------13/18-18-|
    A|-11-----11-13-----13-13/15----------|
    E|------------------------------------|
    
    G|--------|--------|--------|----------------|
    D|--------|--------|--------|----------------|
    A|--------|-138----|--------|----------------|
    E|-6------|------6-|--6---6-|-2----3----5--6-|
    
    G|--------|--7/------|------------|-------|
    D|--------|--5/10----|-----8--8---|-------|
    A|--------|----------|------------|-------|
    E|-1/6----|--------6-|-6--6-------|-91--1-|
    
    G|------------------------------------------------------------|
    D|------------------------------------------------------------|
    A|------------------------------------------------------------|
    E|-1/11-11-11-11-11-11-11-11-10-10-10-10-10-10-10-9-9-9-9-9-9-|
    
    G|---------------------------------------------|
    D|-----10--------11----------------------------|
    A|-11-----11-13-----13-------------------------|
    E|---------------------11-11-11-11-11-11-11-11-|
    
    G|---------------------------------|
    D|---------------------------------|
    A|---------------------3-----------|
    E|-7-7-7-7-7-7-7-7-4-4---4-4-4-4-4-|
    
    G|-------------------------------13---|
    D|-----10--------11--------10/13------|
    A|-11-----11-13-----13-11-------------|
    E|------------------------------------|
    
    G|----------------------------------|
    D|-----10--------11--------10/18-18-|
    A|-11-----11-13-----13-11-----------|
    E|----------------------------------|
    
    G|---------------------------------13----|-------------------|
    D|-10-----10-11-----11----10-11-13-------|-----10------------|
    A|-----11--------13----11----------------|-11-----11-13---13-|
    E|---------------------------------------|-------------------|
    
    G|------|----14-----------|---------|---|-------------10-5-5---|
    D|------|-12--------------|---------|---|--------5-------------|
    A|----3-|-------8-6-5-----|---------|---|-55---5--3-5----------|
    E|-3----|-------------8-6-|-6-6-5/6-|-3-|----3---------------6-|
    
    G|-------------------------------------------------------------|
    D|---8/10-8--7-------------------------------------5---5---5---|
    A|-8-----------5--3--3--5-7-5--3---3---3-1---3-----------------|
    E|-------------------------------5---------------3---3---3---3-|
    
    G|-------------------------------------------------------------|
    D|---------------------------------------------10--------11----|
    A|---8-8-8-8-8-8--7-7-7-7-7-7--6-6-6-6-6-6--11----11-13-----13-|
    E|-7-----------------------------------------------------------|
    
    G|-------------------------------------------------------------|
    D|-------------------------------------------------------------|
    A|-----------------------------------------------------------3-|
    E|-10-10-10-10-10-10-7-7-7-7-7-7-3-3-3-3-3-3-3-3-3-3-3-3-3-3---|
    
    G|---------7-7-------------2-------|
    D|-----7-7-----5-5-------2-------2-|
    A|-5-5-------------0-0-4-----0-4---|
    E|---------------------------------|
    
    G|-7-7-----7-7---------------------|
    D|-----7-7-----7-7-----------------|
    A|-----------------0-0-0-2-3-3-4-4-|
    E|---------------------------------|
    
    G|-------------------------|-----------------------------|
    D|-------------------------|-----------------------------|
    A|-5---5-----9---9-7-------|---------1-------1-1-1-4-6-7-|
    E|---5---5-7---7-----7-7-7-|-x-2-2-----2-2---------------|
    
    G|---------------|
    D|---------------|
    A|---------------|
    E|-2--2-2--2-2-2-|
    
    G|--------|------------|-10----|-----------------|
    D|--------|------------|--8----|-8---------------|
    A|-128----|-13b15rbrbr-|-------|-----------------|
    E|------6-|------------|-----6-|----2---3---5--6-|
    
    G|---------|-6~~~---|-8-~~~-|
    D|---------|-8~~~---|-11~~~-|
    A|---------|--------|-------|
    E|-1/6-----|--------|-------|
    
    G|---------------|-------|
    D|---------------|-------|
    A|---------------|-------|
    E|-2---3---15-1--|-6/96/-|
    
    G|-----------------------------------------------|
    D|-----------------------------------------------|
    A|-----------------------------------------------|
    E|-11-11-11-11-11----10-10-10-10-10----9-9-9-9-9-|
    
    G|-------------------------------------------------------------|
    D|---10-----11-------------------------------------------------|
    A|-11--11-13--13---------------------------------------3-------|
    E|--------------10-10-10-10-10-10-10-7-7-7-7-7-7-7-4-4---4-4-4-|
    
    G|-------------------------------|---------------------------13|
    D|-----10-------11-------10/18-18|---10-------11-------11-13---|
    A|6/11----11-13----13-11---------|11----11-13----13-11---------|
    E|-------------------------------|-----------------------------|
    
    G|-------------------------------------|
    D|----10-------11----13-11-10----10/18-|
    A|-11----11-13----13----------11-------|
    E|-------------------------------------|
    
    G|-----------------------------|
    D|----10-------11----10--------|
    A|-11----11-13----13-----------|
    E|----------------------134--4-|…
  • fretless bass                 bass-tablature
    G|-------|--------|--------|-------|--------|--------|---------|
    D|5---5--|--------|--------|-------|--------|7-------|---------|
    A|--5---5|5---5--5|7---7--5|3-3----|5---5--5|----5-5-|-3---3--3|
    E|-------|--5---5-|--7---7-|----3-3|--5---5-|--0-----|---3---3-|
    
    G|--------|------/4-|---------|------------|---------|-----54--|
    D|------4/|5---5---5|---------|---4/7-7-10-|-2---4-5-|-7-----70|
    A|5---5---|--5------|-5---5--5|-6----------|---2-----|---------|
    E|--5-----|---------|---5---5-|------------|---------|---------|
    
    G|-------4|-----|-----------|------------|----------|------0---|
    D|5---5-5-|-----|--2--------|------------|-5---5--5-|---24---0-|
    A|--5-----|5---5|3---3-5-3--|5-5-5-5-5-5-|---5---5--|-3--------|
    E|--------|--5--|----------3|------------|----------|----------|
    
    G|0---0-4|--2/7-7|---------|-----|-------------|---------------|
    D|--0----|0------|5-4-2/5-0|-----|-------------|5-5--5-5--5----|
    A|-------|-------|---------|3-2-0|2-2/3-5-/7-/9|------------1/6|
    E|-------|-------|---------|-----|-------------|---------------|
    
    G|-------|------|
    D|-------|------|
    A|-6-5-3-|-3/12-|
    E|-------|------|
    
    G|------------|--------|--------|--------|---------|-----------|
    D|5--55-55-5-5|--------|--------|--------|---------|-----------|
    A|------------|5---5-5-|57---7--|3-3-----|-5---5---|-5/7---5-5-|
    E|------------|--5----5|---7---7|----3-3-|---5---5-|-----0-----|
    
    G|--------|--------|-------/4-|-------|--------|-------|---54--|
    D|--------|------4/|5---5----5|-------|--4/7-10|2---4-5|7----70|
    A|3---33-3|5---5---|--5-------|5---5--|6-------|--2----|-------|
    E|--3---3-|--5-----|----------|--5---5|--------|-------|-------|
    
    G|-------4|-----|------------|-----------|---------|-----------|
    D|5---5-5-|-----|--2---------|-----------|5---5--5-|---24-5----|
    A|--5-----|5---5|3---3-5-3---|5-5-5-5-5-5|--5---5--|-3------5--|
    E|--------|--5--|----------33|-----------|---------|-----------|
    
    G|------4|---2/777|-------|---------|------------|-------------|
    D|5---5--|--------|5-4-2-0|---------|------------|-------------|
    A|--5----|5-------|-------|-3-2-0---|-2/5-7-9/10-|-5-5-5-5-5-5-|
    E|-------|--------|-------|---------|------------|-------------|
    
    G|----------|----------|--------|---4754-|---------|-----|-----|
    D|-5-5-5-5--|--2345-5--|5-5-5-55|047----7|55442/500|-----|-----|
    A|--5-5-5-5-|-3----5-5-|-5-5-5--|--------|---------|3-2-0|--5--|
    E|----------|----------|--------|--------|---------|-----|0---3|
    
    G|----------|------------------|
    D|----------|--------/9-5-5----|
    A|---45-7/9-|-10-1010------5---|
    E|----------|----------------3-|…
  • Verse
     Gm
     Sleeping very soundly on a Saturday morning I was
     Dreamiing I was Al Capone, There`s a
     rumour goin` round gotta clear outta town, I`m
     smelling like a dry fish-bone.
     
     Here come the law gonna break down…
  • Guitar 1:
    
    E|-------------|
    B|-------------|
    G|-4/54--2--4~-|
    D|-------------|
    A|-------------|
    E|-------------|
    
    Guitar 2:
    E|------------------------------------------------------------|
    B|------------------------------------------------------------|
    G|-12~--11---9~-----12~---11---9~----11h12-12--11h12-12/14-16-|
    D|---------9-----------------9--------------------------------|
    A|------------------------------------------------------------|
    E|------------------------------------------------------------|
    
    E|------------------------------------------------------------|
    B|------------------------------------------------------------|
    G|---9-11-11b12-b12…
  • bass-tab.                    THE GAME
    G|-14h16-|-14h16-----|-16---------|-16h18---|-16----|----------|
    D|-------|--------16-|------------|------16-|----14-|-17-16----|
    A|-------|-----------|------------|---------|-------|-------14-|
    E|-------|-----------|------------|---------|-------|----------|
    
    G|------------|------------|-----------|-----------|
    D|------------|------------|-----------|-----------|
    A|-14---------|------------|-14--------|-----14--4-|
    E|------------|------------|-----------|-----------|
    
    G|------------|------------|------------|----------|
    D|------------|------------|------------|----------|
    A|-5----------|------------|------------|----------|
    E|-------2-2--|-3-----4-4--|-5----55-5--|-5----55--|
    
    G|-----------|------------|------------|-----------|
    D|-----------|------------|------------|---------4-|
    A|-5-5-789-9-|------------|------------|------5----|
    E|-----------|-3-----4-4--|-5----55-5--|-5---------|
    
    G|--16-16-16-16|--16-161819--|---16--------|-------------|
    D|-------------|-----------16|-16----14-14-|-17--16------|
    A|-------------|-------------|-------------|---------14--|
    E|-------------|-------------|-------------|-------------|
    
    G|---16-16-16-16-16-161819---|-----16------|-------------|
    D|-------------|----------16|----16--1414|-5--4----------|
    A|14-----------|-------------|-14----------|-------2--4--|
    E|-------------|-------------|-------------|-------------|
    
    G|-----2------|------------|------------|------------|
    D|-0----0-----|------------|------------|------------|
    A|------------|------------|------------|------------|
    E|-------2-2--|-3-----4-4--|-5---55--5--|-5----55--55|
    
    G|------------|------------|------------|--------19-|
    D|------------|------------|------7-----|-----------|
    A|-5-5--------|------------|------------|------5----|
    E|-------2-2--|-3-----4-4--|-5---5----5-|-5---------|
    
    G|-7--9--7/9/11--12--13--14-15-16--17--19-16-----|
    D|-----------------------------------------------|
    A|-------------------------------------------173-|
    E|-----------------------------------------------|
    
    G|------------|------------|------------|------------|
    D|------------|------------|------------|------------|
    A|-5----------|------------|------------|------------|
    E|-----012-2--|-3----34-4--|-5----55-5--|05-5--55--55|
    
    G|------------|------------|------------|------------------|
    D|------------|------------|------------|------------------|
    A|-5----------|------------|------------|-------5-----2--0-|
    E|-------2-2--|-3-----4-4--|-5-----5-5--|-5--------2-------|
    
    G|-----------|------------|------------|------------|
    D|-----------|------------|------------|------------|
    A|-5---789-9-|------------|------------|------------|
    E|-----------|-3-----4-4--|-5-----5-5--|-5----5-5-55|
    
    G|-----------|------------|------------|------|
    D|-----------|------------|------------|------|
    A|-5---789-9-|------------|------------|------|
    E|-----------|-3-----4-4--|-5-----5-5--|-5----|
    
    G|------------|---------|-16----18h19|18------18--|16------16--|
    D|-16----16/18|18-------|------------|------16--16|------16--16|
    A|------------|---------|------------|------------|------------|
    E|------------|---------|------------|------------|------------|
    
    G|-18----18/19|-19---------|-----7------|-------4--4-|-2-------|
    D|------------|-------16/17--16-----9-4|------4--4-4|------2---|
    A|------------|------------|------------|-2----------|---------|
    E|------------|------------|------------|------------|---------|…
  • D			G	 C	   G
     This thing,  called love, I just  can`t  handle it,
     
     	   D			G	   C	   G
     this, thing,  called love, I must, get round to it,
     
     	D	Bb	      C		   D
     I anit ready,  Crazy little thing called love.…
  • 12"/left/riff A
    E|-----------------------------------------------------|
    B|-----------------------------------------------------|
    G|-8--8--7--7--6--6--5--5--4--4--3--3--3--3-1----------|
    D|---------------------------------------------------x-|
    A|------------------------------------------------1----|
    E|-----------------------------------------------------|
    
    38"/left/riff…
  • G|-------------|-------------|-----|-----|-------------|---------6-7-8-|
    D|-------------|-----6-7-8-9-|-0//-|-0//-|-------------|-----6-7-------|
    A|-----6-7-8-9-|-------------|-//0-|-//0-|-----6-7-8-9-|---------------|
    E|-7-7---------|-7-7---------|-----|-----|-7-7---------|-7-7-----------|…
  • Intro:    D A   D A   D A   D A
    
    [1]
    D A     D A    D A        D A
    I love,          she makes me
    D          A    D A   D           C
     She is my heart        she is my love
    G          A    D A   D A
     She is my love
    
    [2]
    D…
  • Dm (V)
    E|--------6--5--6-------5----5-|
    B|-----7-----------7----5----5-|
    G|--7-------------------5----5-|
    D|----------------------0------|
    A|---------------------------5-|
    E|-----------------------------|
    
    Riff-2:
    E|-------1--5--1-----6---------------------5--------8--6-------|
    B|----------------1-----6---------------6-----6-----------6--6-|
    G|----5--------------------5--5------5-----------5-------------|
    D|-3------------------------------3----------------------------|
    A|-------------------------------------------------------------|
    E|-------------------------------------------------------------|
    
    E|------------------------------------------------------------|
    B|------------------------------------------------------------|
    G|----------------------------0-------0------0-------0------2-|
    D|--3------2------0-----------------------------------------0-|
    A|----------------------------3-------3------3-------3--------|
    E|-----------------------3------------------------------------|
    
    Riff-3:
    E|------------------------2------|
    B|---------3--------------3------|
    G|---------4--------------4------|
    D|---------5---------------------|
    A|--------------0--2-----------2-|
    E|--3----------------------------|
    
    E|---------3--------------------------------------------2------|
    B|---------5-------------3---------------3--------------3------|
    G|---------4------5------2---------------4--------------4------|
    D|--2-------------5------0---------------5---------------------|
    A|----------------3---------------------------0--2-----------2-|
    E|--------------------------------3----------------------------|
    
    E|---------3-------------------------------------------------|
    B|---------5---------------0--0------------------------------|
    G|---------5-------------------------------------------------|
    D|-------------------------3--2------2-----------------------|
    A|--3------3--2--0-------------------0------2----3--2------0-|
    E|------------------4----------------------------------------|
    
    E|-------------------------------------------------------------|
    B|--1------0----1--0--------------0-----------1--0-----------0-|
    G|--0---------------------2--------------0--------------0------|
    D|-------------------------------------------------------------|
    A|--3----------------------------------------------------------|
    E|-------------------------------------------------------------|
    
    E|---------------------------------3-3-3-|
    B|--------------1------------------6-6-6-|
    G|--3------0-------3------0--------5-5-5-|
    D|---------------------------------0-0-0-|
    A|---------------------------------------|
    E|---------------------------------------|
    
    Riff…
  • Chords:  C# = xx4121, C#7 = x4342x, Dmaj7 = xx0222
    
    Intro:  Am  Em   D  C#  A    Dmaj7 / / / / / / /
    
    Dmaj7      D7       G       D         G             C          D
    When I was young it came to me, and I could see the sun…
  • (Song is in D)
    
     Intro:
     ------
    
     E--2-2--2-2-2--2-3-3--3-3-3--3-5-5--5-5-5--5-3-3--3-0-0--0
     B--3-3--3-3-3--3-3-3--3-3-3--3-3-3--3-3-3--3-3-3--3-3-3--3
     G--2-2--2-2-2--2-4-4--4-4-4--4-5-5--5-5-5--5-4-4--4-0-0--0
     D--0-0--0-0-0--0-0-0--0-0-0--0-0-0--0-0-0--0-0-0--0-0-0--0…
  • Symbols :
    ----------
    h - hammer on
    p - pull off
    b - bend up
    r - release bend
    () - optional note
     
    E-----------------------------------------------------------------
    B-----------------------------------------------------------------
    G------------5---5------------2----2-------2---2------------------
    D------------5---5------------2----2-------2---2------------------
    A------------3---3------------0----0-------0---0------------------
    E--------------------------------3-----------3--------------------…
  • B            E
    When I hear, that rock and roll
            F#
    It gets down to my soul,
              B            F#
    When it`s real rock and roll, oh rock and roll
    
    (Repeat)
    
        (Power chord section)
    
    B
    
    B
    Oh Oh...…
  • E|------------------------------------------------|
    B|------------------------------------------------|
    G|------------5---5------------2----2-------2---2-|
    D|------------5---5------------2----2-------2---2-|
    A|------------3---3------------0----0-------0---0-|
    E|--------------------------------3-----------3---|
    
    ....we…
  • E|---------------------------------------|-----------|
    B|--------------------------------5------|------5----|
    G|--------------------------------4------|-0/---4----|
    D|---/9999-6-6--4----2-/9999-6-6--4------|-/0---4----|
    A|---/7777-4-4--2----2-/7777-4-4-22------|----..2----|
    E|-*-----------4--3b-0--------------3b-0-|--------4b-|
    
    A…
  • F/C              C          F/C                 C
    Ooo, you make me live.  Whatever this world can give to me
    
         F/C               C     F/C              C
    It`s you, you`re all I see.  Ooo, you make me live now honey
    
    F/C…
  • E|----------7----7---------------10p7h10p7------------|
    B|-10b12v-----10---10-7-10p7h10p7---------10p7-10b12v-|
    G|----------------------------------------------------|
    D|----------------------------------------------------|
    A|----------------------------------------------------|
    E|----------------------------------------------------|
    
    E|--------------------------|
    B|-10-7---------------------|
    G|------9b10__r9--7-9-7h9p7-|
    D|--------------------------|
    A|--------------------------|
    E|--------------------------|
    
    E|17b19_r--17---14-----------------------17--|
    B|-----------------17b19---17v-----17b19-----|
    G|-------------------------------------------|
    D|-------------------------------------------|
    A|-------------------------------------------|
    E|-------------------------------------------|
    
    E|----------------------------------|
    B|-19r17p15-17b19__r17p15-----------|
    G|------------------------16---14vv-|
    D|----------------------------------|
    A|----------------------------------|
    E|----------------------------------|…
  • Eb                               Ab                 Gm     Cm
    I can dim the lights and sing you songs full of sad things
    Fm            Ab      Bb      Eb       BЬ
    We can do the tango just for two
     Eb…
  • [Fade in]                   Pause
    E|--5-----5-----5-----5----|
    B|--7-----7-----7-----7----|
    G|--7--7--7--7--7--7--7--7-|
    D|--0-----0-----0-----0----|
    A|-------------------------|
    E|-------------------------|
    
    Introduction:
    
    E|-5---5---5---5---5---5---3---3-------------0-----|
    B|-7---7---7---7---7---7---3-3-3-3-6---6---6-------|
    G|-7-7-7-7-6-7-6-7-5-7-5-7-4---4---7---7---0---7---|
    D|-0---0---0---0---0---0---0---0---8-8---7-8-----8-|
    A|-----------------------------------------8-------|
    E|---------------------------------6---------------|
    
    E|---------------------7--10-|
    B|--------------7--10--------|
    G|--------7--9---------------|
    D|--7--0---------------------|
    A|--5------------------------|
    E|---------------------------|
    
    Verse:…
  • |--------5-----8p5-----5h8p5-------------trem--------------|
     |----------8p5-----8p5---------5---------0---------------|
     |-8b10-----------------------8---8-7-5v--0---7---5p4-5---|
     |----------------------------------------------------------|…
  • A                E         D                     A  E
     You might believe in heaven, I would not care to say
         A                 E             D                 A
     For every star in heaven, there`s a sad soul here today…
  • intro
    E-|---10-10-10-10-10-10-10-8-8-8-8-7-7-7-7---5-5-5-5-5-5-5-|
    B-|---10-10-10-10-10-10-10-8-8-8-8-8-8-8-8---6-6-6-6-6-6-6-|
    G-|---11-11-11-11-11-11-11-9-9-9-9-7-7-7-7---5-5-5-5-5-5-5-|
    D-|-0--------------------------------------0---------------|
    A----------------------------------------------|
    E----------------------------------------------|
    
    E-|---7-7-7-7-7-7-7---5-5-5-5-5-5-5------|
    B-|---8-8-8-8-8-8-8---6-6-6-6-6-6-6------|
    G-|---7-7-7-7-7-7-7---5-5-5-5-5-5-5------|
    D-|-0---------------0----------------|
    A----------------------------|
    E----------------------------|…
  • Hm              F#          Hm
    And then I saw Him in the crowd
    Hm                   F#        Hm
    A lot of people had gathered round Him
     Hm                              F#     Hm
    The beggars shouted Him and the lepers called…
  • riff 1                            riff 2
    G|-----------------------------|  |----------------------------|
    D|-----------------------------|  |----------------------------|
    A|-----------------------------|  |----------------------------|
    E|-5-3-0--0--0--0-0--0--3--0-5-|…
  • E|-------------------------------------------------------------|
    B|-------------------------------------------------------------|
    G|-2-----2-----2-----2---2-----2-6r4p2-----2-2----2-----2----2-|
    D|-2-----------------2-2---------------4-2-2-----------------2-|
    A|-0-3b4---3b4---3b4-0-----3b4-------------0--3b4---3-4--3b4-0-|
    E|-------------------------------------------------------------|
    
    E|-2----------------------------------------------------3------|
    B|---5----------------------2---3------------------------------|
    G|--(0)-6r4p2-------------2-2---------2-4-----2-2-2-0-2--------|
    D|------------4-2-2-2-2-2---2-2---0h4---------2-2-2-0-2--0-----|
    A|----------------0-0-0-0---0-------------3b4-0---0---0----3b4-|
    E|-------------------------------------------------------------|
    
    E|-------------------------------------4-----7-----------7-----|
    B|-----7h8--7---7h8---5---7h8--7--7h8--5--8--7--8---10-----8---|
    G|-----7h9--7---7h9---6---7h9--7--7h9--6-----6-----9---9-----9-|
    D|-----7----7---7-----7---7----7--7----7-----------------------|
    A|-0-0---------------------------------------------------------|
    E|-------------------------------------------------------------|
    
    E|-9-----10-----9-----7--------|
    B|---8------8-----8-----8---10-|
    G|-----9------9-----9-----9----|
    D|-----------------------------|
    A|-----------------------------|
    E|-----------------------------|
    
    E|-------------------------------------------------------------|
    B|-----------------------------------------------------9-7-9-7-|
    G|-9---------------------------------------------------9-7-9-7-|
    D|-9-----9---7---9-------------------------------------9-7-9-7-|
    A|-7-7---7---5---7---5--------5-----7--5--7--5-----5-----------|
    E|----0--------------------5-7---0--------------5-7--0---------|
    
    E|-------------------------------------------------------------|
    B|-----9---7---9-7---------------------------------9---7---9-7-|
    G|-----9---7---9-7--7-------7----------------------9---7---9-7-|
    D|-----9---7---9-7------7-9------------------------9---7---9-7-|
    A|-------------------------------------------5-----------------|
    E|-0-------------------------------------5-7---0---------------|
    
    E|-2-------320---0-|-2-------32--0---|---------3-----0----|
    B|-3---3------22--2|-3---3-----3--2--|-----3-----332------|
    G|---2---2------2--|------222---2--22|---2---2------2-2..-|
    D|-----------------|---0-------------|-0------------------|
    A|-----------------|-----------------|--------------------|
    E|-----------------|-----------------|--------------------|…
  • two gtrs
    E|-----------------------------------------------|
    B|-----------------------------------------------|
    G|-----------------------------------------------|
    D|-------3-3-------------3-3-----------353-------|
    A|-353-35---53-35-x353-35---53-35...-..---535...-|
    E|----5-------5-------5-------5------------------|
    
    E|----------------------------------------------------------|
    B|---1------------1---------------1-----------1-------------|
    G|---2---4--------2---4-----------2---4-------2---4---------|
    D|---3---5--------3---5---53------3---5-------3---5---53----|
    A|---3---5-------33---5-----535---3---5-------3---5-----535-|
    E|-31---3---xxxx11---3---------xx1---3---x-xx1---3----------|
    
    two…
  • The muted bit is D as follows...
    
    E|-----------------------------------|
    B|-3-3-3-3...3---------------------3-|
    G|-2-2-2-2...2-2...2-2...2-2...2-2-2-|
    D|-0-0-0-0...0-0...0-0...0-0...0-0-0-|
    A|-------------3...3-2...2-1...1-3---|
    E|-----------------------------------|…
  • Chords:   G7+5 = xx1001, G#dim = xx0101,
              C/E = xx2010,
              1dim = xx1212, 2dim = xx2323  (don't know the names,
                    but they're diminished chords)
    
    Refrain:
    C     G7    C     G7…
  • E|-14b15-14-12-----12------------------------------------------|
    B|--------------15-----------------7-7----------8-8-8-7b8_r7-7-|
    G|--------------------14b16_r14-b9-----7b9__r-7----------------|
    D|-------------------------------------------------------------|
    A|-------------------------------------------------------------|
    E|-------------------------------------------------------------|
    
    E|-----------------------------10--------------------|
    B|-8p7p5--------------8-10b_12---12_r10p8-10b12-10v--|
    G|-------7-7b9---77----------------------------------|
    D|---------------------------------------------------|
    A|---------------------------------------------------|
    E|---------------------------------------------------|
    
    E|-------------12------151312------------------14---------|
    B|---------13------13--------151312--------15----15--1517-|
    G|-7/---12--12--12----------------1412--14--14----14------|
    D|-----14------------------------------16-----------------|
    A|--------------------------------------------------------|
    E|--------------------------------------------------------|
    
    E|171514----------19b20-|-19b20r1917--19----------|
    B|------1715------------|-----------20--20b22vv---|
    G|---------171614-------|-------------------------|
    D|----------------------|-------------------------|
    A|----------------------|-------------------------|
    E|----------------------|-------------------------|…
  • Tune the guitar to a dropped D (lower the low E to a low D)
    
    Most of the song is played on the D chord -
    
    E|----------|-2--2-|
    B|----------|-3--3-|
    G|----------|-2--2-|  ETC...
    D|----------|-0--0-|
    A|----------|-0--0-|
    E|-5--3^--0-|-0--0-|
    
    If…
  • Gm-Eb/G-Gm Gm-Eb/G
    Gm-Eb/G-Gm Gm-Eb-F
    
          Bb
    I'm taking my ride with destiny,
      Dm            Gm   (F)
    Willing to play my part,
     Bb            (Bb7)
    Living with painful memories,
    Eb/G
    loving with all my heart,
    
         Db…
  • C          G7                 Am  (add g bass)
     I am forever searching high and low
     Am                              Dm
     But why does every body tell me no?
     (Dm)           G        C      Dm7    G
     Neptune of the seas,…
  • E|-----------------------------------------------|
    B|-14b15----14b15r14p12------17b19__r17-15141715-|
    G|---------------------14------------------------|
    D|-----------------------------------------------|
    A|-----------------------------------------------|
    E|-----------------------------------------------|
    
    E|-------14-17-14-15-14-15-14-------------------------19b21-|
    B|----15----------------------15---19b21----b21_r19p17------|
    G|-14-------------------------------------------------------|
    D|----------------------------------------------------------|
    A|----------------------------------------------------------|
    E|----------------------------------------------------------|
    
    E|--b21__b22__21r1917------------------------|
    B|-------------------201917--17--------------|
    G|-------------------------19--1916--1619----|
    D|---------------------------------19--------|
    A|----------------------------------------17-|
    E|-------------------------------------------|…
  • solos:
    E|----------------------------------------------------|
    B|------------------------------------------2-3-5b7v--|
    G|-------0h2h4p2~4-p0-----------------0h2h4-----------|
    D|-0h2h4--------------2-----0-----2h4-----------------|
    A|-----------------------4----------------------------|
    E|----------------------------------------------------|
    
    E|-------------------------|
    B|-r5p3-5p2-3p2------------|
    G|---------------4p2-4p0h2-|
    D|-------------------------|
    A|-------------------------|
    E|-------------------------|
    
    37"
    E|---------------------------------------------|
    B|---------------------------------------------|
    G|---------------14b16___r15b16r14p1214b16-----|
    D|------------14-------------------------------|
    A|------10-14----------------------------------|
    E|-*-12----------------------------------------|
    
    E|----------------------------------------|
    B|-15b17----15--13--12--------------------|
    G|----------------------b15_r14p12--------|
    D|---------------------------------14-12--|
    A|----------------------------------------|
    E|----------------------------------------|
    
    E|------------------------------|-------------------------|
    B|-b20__r18-b20--b19-b20__r-17--|-------------------------|
    G|------------------------------|-15__r14p12-14b15--------|
    D|------------------------------|--------------------14---|
    A|------------------------------|-------------------------|
    E|------------------------------|-------------------------|…
  • G|-----------------------11-------11/14------------------------|
    D|----10-12-13-------9------13-12------------------------------|
    A|-8------------8----------------------------------------------|
    E|--------------------------------------3-----1-----5--5--5--5-|
    
    G|------------------------------------------------5-5--3-----3-|
    D|-8-6-5------------------10----5--------5-4-3-----------------|
    A|-------8-6-----8h10-------------5----------------------------|
    E|--------------------8-------------3--------------------------|
    
    G|-3/15--15--15--15---13(6)-----8---8---8---6-6----|
    D|-----------------------------8-----------8-------|
    A|-------------------------6-----------------------|
    E|-----------------------------------------------4-|
    
    G|------------------------------------3--|
    D|---------------------------------------|
    A|---------3---3-1----6---5---3---1----1-|
    E|-4-3----3------------------------------|
    
    G|-----7/12-12(3)---------------7-----------9---------------10-|
    D|--------------------------------7-8-5-7-8--------------------|
    A|-6-5-----------------------------------------3-1-------------|
    E|----------------2-2-2-2-3/135-------------------3-/-6-8/9----|
    
    G|-9/10---17-19-20----20/17------------19146----11-------1411-|
    D|---------------------------19--17------------------13-12----|
    A|------------------------------------------------------------|
    E|------------------------------------------------------------|
    
    G|---------------------------------------5-3--3-----3--3--3--3-|
    D|-8-6-5--------------10-5-----5-5-4-3-3----------3------------|
    A|-------8-6-6-8h10--------5-----------------------------------|
    E|------------------8--------3---------------------------------|
    
    G|---------------8------------------------------------|
    D|------------------8-----8---------------------------|
    A|-6---6---6-6--------6-----6-----------------3---3-1-|
    E|----------------------------9-8-4---4-3---3---------|
    
    G|---------------------------------|
    D|---------------------------------|
    A|-1-6----5----3----1----1/6----65-|
    E|---------------------------------|
    
    G|-7/12-12-12-12-12-12------------|
    D|--------------------------------|
    A|-------------------------10-8-6-|
    E|---------------------3-6--------|
    
    G|-----------------7/12-12-12-/19----|
    D|--------------------------------20-|
    A|-5-5-3---------5-------------------|
    E|-------5-2-3-3---------------------|
    
    G|--------------7-----------9--------10--/12----/15-----/18/19-|
    D|----------------7/8---7-8-----8-10---------------------------|
    A|-9-----------------------------------------------------------|
    E|---10-2-3-x-x------3/-------3--------------------------------|…
  • E B C#m                       G#m
          Another party`s over   And I`m left cold sober
    
    
     -----------------------------------4--
     -4-5-4-5---------4-5-4-5-------6---6--
     -3---------------2-------------4---7--
     -5---------------4-------------6---6--…
  • intro
    E|-------12--------8----------10-----------13---------15-|
    B|----13---------8---------10-----------13---------15----|
    G|-14----------9--------11-----------14---------16-------|
    D|-------------------------------------------------------|
    A|-------------------------------------------------------|
    E|-------------------------------------------------------|
    
    solo
    E|---------------------------12--------------------------------|
    B|-13b15---13vvv-----13--15------13b15--13vvv---12h13-13p12----|
    G|--------------------(13)----------------------------------14-|
    D|-------------------------------------------------------------|
    A|-------------------------------------------------------------|
    E|-------------------------------------------------------------|
    
    E|-----------------|
    B|-12--------------|
    G|----14b16---14vv-|
    D|-----------------|
    A|-----------------|
    E|-----------------|
    
    E|-------------12---------------------------12---------12-----|
    B|-12--13--15------15b17vv----15---13-15b17------15b17------x-|
    G|---------------------------------------------------------x--|
    D|------------------------------------------------------------|
    A|------------------------------------------------------------|
    E|------------------------------------------------------------|
    
    E|-----12-|
    B|-b17----|
    G|--------|
    D|--------|
    A|--------|
    E|--------|
    
    E|-----------------------------------------------------------|
    B|-17r15p13---12-13------------------------------------------|
    G|------------------14v---12---------------------------------|
    D|----------------------------13r12p10--12p10------12/14-12--|
    A|--------------------------------------------12-------------|
    E|-----------------------------------------------------------|
    
    E|-----------------------------------|
    B|-----------------------------------|
    G|-12--12------_____-----------------|
    D|---------10--13r12--10--12---------|
    A|----------------------------10--12-|
    E|-----------------------------------|
    
    E|-----------19b21---------------------------------------------|
    B|-20b22---------------20b22___b22---22r20___p17-20p17---------|
    G|-----------------------------------------------------20--19--|
    D|-------------------------------------------------------------|
    A|-------------------------------------------------------------|
    E|-------------------------------------------------------------|
    
    E|---------------|
    B|---------------|
    G|-17b-------x-x-|
    D|-----19/-x-x---|
    A|---------------|
    E|---------------|
    
    E|-----------------------------------------20b22----20p17-|
    B|-20------20----(0)---20b22---20-19---x------------------|
    G|-19b21---19b21-----------------------x------------------|
    D|-------------------------------------x------------------|
    A|-------------------------------------x------------------|
    E|-------------------------------------x------------------|
    
    E|-------------------------------------|
    B|-20p17-------------------------------|
    G|-------20p19p17----------------------|
    D|----------------19-17----________----|
    A|----------------------19-18-17-15----|
    E|----------------------------------17-|…
  • two guitars (both in the middle)
    E|----------------------------------------|
    B|----------------------------------------|
    G|-4---4p0---0-4---4-----0-4---4-*---0-4--|
    D|-2---2p0-----2---2p0-----2---2p0-----2--|
    A|---------2-----------2p0---------2------|
    E|----------------------------------------|
    
    E|------------------------------------|
    B|------------------------------------|
    G|--4-----0-4---4------(0)-(0)--------|
    D|--2p0---0-2---2p0---0-2---2p0-----5-|
    A|------2p0---------2p0---------2p0-5-|
    E|----------------------------------3-|
    
    guitars…
  • B7                         C
    E|---------------------------------------------------------|
    B|---------------------------------------------------------|
    G|-4------3-4-5--4h5p4-2h4p2-4p2--2------------------------|
    D|-----------------------------------------------5-5---4h5-|
    A|---------------------------------------------------------|
    E|---------------------------------------------------------|…
  • Am
    Sometimes I feel I?m gonna break down and cry (so lonely)
    Nowhere to go, nothing to do with my time
    Gm            Am  Gm        Am  Gm    Em
    I get lonely, so lonely, living on my own.
    Sometimes I feel I?m always walking…
  • Intro:		G  C  G  C
    
         G			C  D	    G		G7
    
    Oh yes, I'm the Great   	Pretender,
    
    C			  G	  G7
    
    Pretending I'm doing well.
    
         C		D	G		C   C #
    
    My need is such, I pretend too much,
    
    	G	 C  D		G
    
    I'm lonely…
  • D
    Sammy was low
    
    E7
    Just watching the show
    
    G        Gm     D
    Over and over again
    
    Knew it was time
    He`d made up his mind
    To leave his dead life behind
    
        Bm
    His boss said to him
    
    Bm/A Bm/G#               ( Bm/A = x0443x…
  • E|-----0---------0---------0---------0---------0----|
    B|----0-0-------1-1-------0-0-------1-1-------0-0---|
    G|---0---0-----2---2-----0---0-----2---2-----0---0--|
    D|--2-----2---2-----2---2-----2---2-----2---2-----0-|
    A|-----------0-------------------0------------------|
    E|-0-------------------0-------------------0--------|
    
    E|-----3---------1---------0---------3----|
    B|----0-0-------0-0-------1-1-------4-4---|
    G|---0---0-----0---0-----0---0-----3---3--|
    D|--0-----0---0-----0---2-----2---5-----5-|
    A|---------------------3---------6--------|
    E|-3---------3----------------------------|
    
    E|-----2---------2---------2-------2-2-2-2-|
    B|----3-3-------2-2-------1-1------1-1-1-1-|
    G|---2---2-----2---2-----2---2-----2-2-2-2-|
    D|--4-----4---4-----4---4-----0----0-0-0-0-|
    A|-5---------4---------3-----------0-0-0-0-|
    E|-----------------------------------------|…
  • sketch
    E|-------------------------------------------------------|
    B|-------------------------------------------------------|
    G|-------------------------------------------------------|
    D|-------------------------------------------------------|
    A|-------------------------------------------------------|
    E|-x-12---10---12-0-0-10---9---x---x---x-7-0-0-5---6---0-|…
  • solo
    E|-----------------------------|
    B|-----------------------------|
    G|----15b17-17_r15p13-15-12----|
    D|-13-----------------------13-|
    A|-----------------------------|
    E|-----------------------------|
    
    E|---------------------------------------|
    B|---------------------------------------|
    G|----------12b13-12b13-13r12p10-12-8----|
    D|-13-12h13---------------------------10-|
    A|---------------------------------------|
    E|---------------------------------------|
    
    E|-------------------------10---11---13_r-11----------|
    B|-----11b13__r11-/-13-----------------------11___/16-|
    G|-8-8-15b17__r15-/-17--------------------------------|
    D|----------------------------------------------------|
    A|----------------------------------------------------|
    E|----------------------------------------------------|
    
    E|-15-15b_16-15b16rbrb-15/16-16b18-16--15---------18b_20-18-18-|
    B|-----------------------------------------18--16-18b_20-18-18-|
    G|------------------------------------------------19b_20-19-19-|
    D|-------------------------------------------------------------|
    A|-------------------------------------------------------------|
    E|-------------------------------------------------------------|…
  • right guitar
    E|----------------------------------------|
    B|----------------------------------------|
    G|----------------------------------------|
    D|----------------------------------------|
    A|-slide down-----------------------------|
    E|(11-11-11)-3111x11-111-111-1111111-1111-|
    
    E|-------------------------------------|
    B|-------------------------------------|
    G|-------------------------------------|
    D|-------------------------------------|
    A|-------------------------------------|
    E|-x1-1111111-1111111-1111111/55555555-|
    
    E|-------------------------------------|
    B|-------------------------------------|
    G|-------------------------------------|
    D|-------------------------------------|
    A|-------------------------------------|
    E|-555-555-555-555x5555555-555-555-555-|
    
    E|---------------------------------|
    B|---------------------------------|
    G|---------------------------------|
    D|---------------------------------|
    A|---------------------------------|
    E|-555-555-55555-55555-555-555-555-|…
  • guitar solo
    E|----------------15-15-------15-15-------15-15----------------|
    B|-18b20----18b20-------18b20-------18b20-------18b20-18-18-15-|
    G|-------------------------------------------------------------|
    D|-------------------------------------------------------------|
    A|-------------------------------------------------------------|
    E|-------------------------------------------------------------|
    
    E|-18p15----17p15----18p15----15-15-15-------15-15-------|
    B|-------15-------15-------15----------18b20-------18b20-|
    G|-------------------------------------------------------|
    D|-------------------------------------------------------|
    A|-------------------------------------------------------|
    E|-------------------------------------------------------|
    
    E|-15-15------15-15-------15-15-|
    B|------18b20-------18b20-------|
    G|------------------------------|
    D|------------------------------|
    A|------------------------------|
    E|------------------------------|
    
    E|---------------------------------------------------|
    B|-18-15----15----------18b20---b19b20---18-16-------|
    G|-------18----18-17-15------------------------17-15-|
    D|---------------------------------------------------|
    A|---------------------------------------------------|
    E|---------------------------------------------------|
    
    E|---------------------------|
    B|---------------------------|
    G|---------------------------|
    D|-17-16-15-13----15-13------|
    A|-------------15-------15__-|
    E|---------------------------|
    
    E|-------------------------------------------------|
    B|---------------------------------------18-20b22--|
    G|----------------------17-19p17---17-19-----------|
    D|---------15----15-/19---------19-----------------|
    A|__9_/17----17------------------------------------|
    E|-------------------------------------------------|
    
    E|--------20b22vv------|
    B|--20-18--------------|
    G|---------------------|
    D|----------------0r//-|
    A|---------------------|
    E|---------------------|…
  • Piano (arr. for 2 guitars)
    
    GTR 1
    E|-2---2---2---2---|-3---3---3---3---|
    B|-3---3---3---3---|-3---3---3---3---|
    G|-2---2---2---2---|-3---3---3---3---|
    D|---0---0---0---0-|---0---0---0---0-|
    A|-----------------|-----------------|
    E|-----------------|-----------------|
    
    E|-2---2---2---2---|-3---3---0---0---|
    B|-3---3---3---3---|-3---3---3---3---|
    G|-2---2---2---2---|-3---3---?---?---|
    D|---0---0---0---0-|---0---0---0---0-|
    A|-----------------|-----------------|
    E|-----------------|-----------------|
    
    GTR…
  • 9"
    E|-------------------|
    B|-------------------|
    G|-16----------------|
    D|-16----------------|
    A|-16----------------|
    E|-14-x-x-x-x-x-x...-|
    
      14"
    E|--------------------------|----------------------------------|
    B|--------------------------|----------------------------------|
    G|-17-17-x-17--x-17--17--17-|-x-17--17--x-17--x-17--x-17--x-17-|
    D|-17-17-x-17--x-17--17--17-|-x-17--17--x-17--x-17--x-17--x-17-|
    A|-17-17-x-17--x-17--17--17-|-x-17--17--x-17--x-17--x-17--x-17-|
    E|-15-15-x-15--x-15--15--15-|-x-15--15--x-15--x-15--x-15--x-15-|
    
    E|-------------------------------------|
    B|-------------------------------------|
    G|-x-17--x-17--x-17--x-17--x-17--x-17--|
    D|-x-17--x-17--x-17--x-17--x-17--x-17--|
    A|-x-17--x-17--x-17--x-17--x-17--x-17--|
    E|-x-15--x-15--x-15--x-15--x-15--x-15--|
    
    E|---------------------------------------|
    B|---------------------------------------|
    G|----------17---------------------------|
    D|----------17---------------------------|
    A|----------17---------------------------|
    E|x-x-...-x-15-x-........slide…
  • Intro: Muted Am chord
    
    Verse 1:
         Am   G F              D         A D G Am
    Flash. Ah,  Saviour of the universe.
         Am   G F                D         A D G Am
    Flash. Ah,  He`ll save every one of us.
         Am   G F…
  • solo:
    E|-------------------------------------------------------------|
    B|-------------------------------21b23---r2221-18--------21b23-|
    G|----------------18--2018-----------------------20182018------|
    D|--------18--20-------------20--------------------------------|
    A|18--20-------------------------------------------------------|
    E|-------------------------------------------------------------|
    
    E|-------------------------------------------------------------|
    B|-b23__r21p1821t23p21t23p21-----------------------------------|
    G|--------------------------20b22__r201820182022__r20p18--18br-|
    D|-------------------------------------------------------------|
    A|-------------------------------------------------------------|
    E|-------------------------------------------------------------|
    
    E|----------------21b23------18-------------------------19b21-|
    B|-------------------------21--2118---------------------------|
    G|-20p18----18br-------------------21201820182018---20--------|
    D|------20---------------------------------------18-----------|
    A|------------------------------------------------------------|
    E|------------------------------------------------------------|…
  • guitar solo:
    middle
    
    E|-3//17---17-16---17-14--------------------------|
    B|-------------------------14-14------------------|
    G|-------------------------------16-14-16b18v-----|
    D|------------------------------------------------|
    A|------------------------------------------------|
    E|------------------------------------------------|
    
    E|----/17---16-14---16----------------------------------*-|
    B|---------------------17---14-15-16-17---16-15-17-14---*-|
    G|------------------------------------------------------*-|
    D|------------------------------------------------------*-|
    A|------------------------------------------------------*-|
    E|------------------------------------------------------*-|
    
    left
    E|--------------------------------------------------------|
    B|-2///314---14-13---14-10---10-10-----------------7//14--|
    G|----------------------------------------------(0)-------|
    D|---------------------------------12-11-12b14------------|
    A|--------------------------------------------------------|
    E|--------------------------------------------------------|
    
    E|--------------------------------------------|
    B|--14------14--------------------------------|
    G|-----14--------------------14---13-12-14-11-|
    D|-------------14---14-14-14------------------|
    A|--------------------------------------------|
    E|--------------------------------------------|
    
    right
    E|--------------------------------------------------------|
    B|-2//17---17-16---17-14---14-14-------------------8//17--|
    G|--------------------------------------------------------|
    D|-------------------------------16-14-18b19v-------------|
    A|--------------------------------------------------------|
    E|--------------------------------------------------------|
    
    E|--------------------------------------------|
    B|--17-14---17---------------14---13-12-14-11-|
    G|-------------14---14-16-17------------------|
    D|--------------------------------------------|
    A|--------------------------------------------|
    E|--------------------------------------------|
    
    E|------------------------------------------------------------|
    B|17b19-17-15-14----------------------------------------------|
    G|---------------16br-14-16b17-16-14h16p14--------------------|
    D|----------------------------------------16p14---14-14----16-|
    A|------------------------------------------------------16----|
    E|------------------------------------------------------------|
    
    middle
    E|------------------------------------------------------------|
    B|----------------------------------------------------17///22-|
    G|------------------14-13h14p13------16b18---16-14------------|
    D|----------14-16-----------------14--------------------------|
    A|-16-17------------------------------------------------------|
    E|------------------------------------------------------------|
    
    left
    E|--------------------------------------|
    B|--------------------------------------|
    G|----------------11-9-----11b13---11-9-|
    D|---------11-12---------9--------------|
    A|-11-12--------------------------------|
    E|--------------------------------------|
    
    right
    E|--------------------------------------------|
    B|--------------------------------------------|
    G|--------------------------------------------|
    D|---------------11-9h11p9------12b14---12-11-|
    A|-8-9---11-12---------------11---------------|
    E|--------------------------------------------|…
  • E|-10p9p7-9p7----7---------7------|
    B|------------10---10p7-10---10p7-|
    G|--------------------------------|
    D|--------------------------------|
    A|--------------------------------|
    E|--------------------------------|
    
    E|-------------------------------------|
    B|-------------------------------------|
    G|--------11-12r11p9-11p9----9----9----|
    D|-----13-----------------11---11---11-|
    A|-/14---------------------------------|
    E|-------------------------------------|…
  • played backwards
    E|---------------------------------------------------|
    B|---------------------------------------------------|
    G|---2---2---2---2-----------------------------------|
    D|---2---2---2---2---2-3-5-5-0-2-3-3-----------------|
    A|-*-0---0---0---0-------------------2-3-5-5-0-2-3-3-|
    E|---------------------------------------------------|
    
    E|---------|--|---------|--|-----------------------------|--|--|
    B|---------|--|---------|--|-----------------------------|--|--|
    G|---------|0/|---------|0/|-----------------------------|0/|--|
    D|---------|/0|---------|/0|---2---2-2---2-2---2-2---2-2-|/0|--|
    A|---------|--|---------|--|---0---0-0---0-0---0-0---0-0-|--|--|
    E|-0-3-5-5-|3X|-0-2-3-3-|3X|-0---3-----3-----3-----3-----|--|0-|…
  • two gtrs
    E|-----------------------------------------------|
    B|-----------------------------------------------|
    G|-----------------------------------------------|
    D|-------3-3-------------3-3-----------353-------|
    A|-353-35---53-35-x353-35---53-35...-..---535...-|
    E|----5-------5-------5-------5------------------|
    
    E|----------------------------------------------------------|
    B|---1------------1---------------1-----------1-------------|
    G|---2---4--------2---4-----------2---4-------2---4---------|
    D|---3---5--------3---5---53------3---5-------3---5---53----|
    A|---3---5-------33---5-----535---3---5-------3---5-----535-|
    E|-31---3---xxxx11---3---------xx1---3---x-xx1---3----------|
    
    two…
  • E|--------5-----8p5-----5h8p5-------------trem----------|
    B|----------8p5-----8p5---------5---------0-------------|
    G|-8b10-----------------------8---8-7-5v--0---7---5p4-5-|
    D|------------------------------------------------------|
    A|------------------------------------------------------|
    E|------------------------------------------------------|
    
    E|---------------------------12-----------------------------|
    B|-15b17__r15p13-15----13-15----15-13-12-13----________-----|
    G|------------------------------------------14-12h14p12-14v-|
    D|----------------------------------------------------------|
    A|----------------------------------------------------------|
    E|----------------------------------------------------------|
    
    E|------------------/17-|
    B|-5--------------------|
    G|---8-5-7-5--------/17-|
    D|-----------7-5-7------|
    A|----------------------|
    E|----------------------|
    
    E|-------13--------------1417p14------------15------|
    B|-----13--16b18-------15-------15--------15--18b20-|
    G|---14--------------14-----------14----16----------|
    D|-15--------------16---------------1617------------|
    A|--------------------------------------------------|
    E|--------------------------------------------------|…
  • Intro:
       
       Gm
     e|-----------------|       |-------------------|------------------|
     B|-----------------|     / |-------------------|------------------|
     G|-----------------|  O /  |-------------------|---------5--------|…
  • E|------10...-----12...-----14...-----15...-----17...-----19...|
    B|-13b15--...15b17--...17b19--...18b20--...20b22--...22b24--...|
    G|-------------------------------------------------------------|
    D|-------------------------------------------------------------|
    A|-------------------------------------------------------------|
    E|-------------------------------------------------------------|
    
    E|----------------------------151718_p17p1517v-|
    B|-----------------18151718--------------------|
    G|------------1416-----------------------------|
    D|--------1517---------------------------------|
    A|-15-1818-------------------------------------|
    E|---------------------------------------------|
    
    E|---------------------------_____17-18-20-b22v----------------|
    B|---------------------15171820(20)---------------22r__20p18vv-|
    G|---------------141517----------------------------------------|
    D|---------141517----------------------------------------------|
    A|-15131517----------------------------------------------------|
    E|-------------------------------------------------------------|
    
    E|------------------------------------------------|
    B|-22r__20p18--20b22--20b22--20b22--20b22--20vv..-|
    G|------------------------------------------------|
    D|------------------------------------------------|
    A|------------------------------------------------|
    E|------------------------------------------------|…
  • Solo
    E|----------------------------------------------------|
    B|----------------------------------------------------|
    G|-------------------12-------------------------------|
    D|-12b14-----12b14--------12b14_r12p10-12-------------|
    A|------------------------------------------12--(/15)-|
    E|----------------------------------------------------|
    
    E|---------------------------------------------15______---15____-|
    B|-------------------------13----15----15b17_____---b17_____-b17-|
    G|-------------------12___----12----12---------------------------|
    D|-------10h12-12/14----14---------------------------------------|
    A|-10h12---------------------------------------------------------|
    E|---------------------------------------------------------------|
    
    E|----------------x-18b20--------------------------------17-------------------|
    B|-b17r__15p13--------------15b17__r15p13-15vv3------17----17-20-17-------18v-|
    G|------------14---------------------------------4/18----------------18-------|
    D|----------------------------------------------------------------------19----|
    A|----------------------------------------------------------------------------|
    E|----------------------------------------------------------------------------|
    
    E|---------------------------------------------------13----17----13---|
    B|--------------------22__r-20-17vv3-------------13----13----13----13-|
    G|-b21__r19----16-19-----------------2/4-15-7/14----------------------|
    D|----------17--------------------------------------------------------|
    A|--------------------------------------------------------------------|
    E|--------------------------------------------------------------------|…
  • Channel 1
    E|---5-6-6-|
    B|-3-7-8-8-|
    G|-3-7-7-7-|
    D|---------|
    A|---------|
    E|---------|
    
    E|-3-5-6-5-6-5-3---3-------5---1---1---1---1---3-0-1-0---------|
    B|-5-----6-6---6-5-3-------7---3-2-3---3-2-3---3-1-1---3---1-3-|
    G|-5-----5-7---5---5-3-----7---2---2---3-2-3---4-0-2---5-4-2-0-|
    D|---------------------7-5-----------------------------5-3-2-0-|
    A|-------------------------------------------------------------|
    E|-------------------------------------------------------------|…
  • Этот проигрыш гитарист Queen?а Брайан Мэй играл, когда
    заканчивалась первая часть песни. Проигрыш создан в стиле
    фламенко играется в песне дважды:
    1й раз - clean acoustic
    2й раз - distortion
    
    E|-55--------7-8-7-10-8-7-5-|
    B|-5-5----------------------|
    G|-5--5---------------------|
    D|-7---7--------------------|
    A|-7----7-------------------|
    E|-5-----5------------------|
    
    E|-33--------5-7-5-8-7-5-3-|
    B|-3-3---------------------|
    G|-4--4--------------------|
    D|-5---5-------------------|
    A|-5----5------------------|
    E|-3-----3-----------------|
    
    E|-11-------3-5-3-7-5-3-1-|
    B|-1-1--------------------|
    G|-2--2-------------------|
    D|-3---3------------------|
    A|-3----3-----------------|
    E|-1-----1----------------|
    
    E|-00--------------00-----------------------------|
    B|-0-0-------------0-0----------------------------|
    G|-1--1------2-2-2-1--1------2-2-2-1--------------|
    D|-2---2-----3-3-3-2---2-----3-3-3-2--------------|
    A|-2----2----3-3-3-2----2----3-3-3-2--------------|
    E|-0-----0---0-0-0-0-----0---0-0-0-0--0-1-2-3-4-5-|
    
    E|-55--------7-8-7-10-8-7-5-|
    B|-5-5----------------------|
    G|-5--5---------------------|
    D|-7---7--------------------|
    A|-7----7-------------------|
    E|-5-----5------------------|
    
    E|-33--------5-7-5-8-7-5-3-|
    B|-3-3---------------------|
    G|-4--4--------------------|
    D|-5---5-------------------|
    A|-5----5------------------|
    E|-3-----3-----------------|
    
    E|-11-------3-5-3-7-5-3-1-|
    B|-1-1--------------------|
    G|-2--2-------------------|
    D|-3---3------------------|
    A|-3----3-----------------|
    E|-1-----1----------------|
    
    E|-00--------------00-----------------------------|
    B|-0-0-------------0-0----------------------------|
    G|-1--1------2-2-2-1--1------2-2-2-1--------------|
    D|-2---2-----3-3-3-2---2-----3-3-3-2--------------|
    A|-2----2----3-3-3-2----2----3-3-3-2--------------|
    E|-0-----0---0-0-0-0-----0---0-0-0-0--0-1-2-3-4-5-|…
  • Two short guitar solos
    E|-------------------------------------------------------------|
    B|-10111081018-----------101110810-1011108108------------------|
    G|------------1091091097--------------------1091091097--910979-|
    D|-------------------------------------------------------------|
    A|-------------------------------------------------------------|
    E|-------------------------------------------------------------|…
  • piano (right) arr for guitar
    E|-----0--------0--------0--------12---|----|
    B|-9-------10-------12-------10--------|----|
    G|-------------------------------------|-0/-|
    D|-9-------11-------13-------11--------|-/0-|
    A|-------------------------------------|----|
    E|---0---0----0---0----0---0----0----0-|-3X-|
    
    E|-----0--------0-------0-------0------------------------------|
    B|-9-------10-------9-------9--------9---9--9--7--7---7---5----|
    G|------------------7-------6--------9---9--9--8--8---8---6----|
    D|-9-------11-------9-------8--------9---9-----9--9---9---7----|
    A|-------------------------------------------------------------|
    E|---0---0----0---0---0---0---0---0------7----------7--------5-|…
  • C                     Bb   F   Bb
     This could be heaven.
    C                     Bb
     This could be heaven.
    F                     Bb   C
     This could be heaven.
    
    This could be heaven.
                         Bb     F
    This could…
  • C                           Bb  Bbmaj7
    Open up your mind and let me step inside
      Am                                 Fm
    Rest your weary head and let your heart decide
           C   Am7 Dm              G7
    It?s so easy when you…
  • 43" H H H                H  H  H  H  H  
     |--14-14-------|--14>>>|-14-14-14-14-14-------|
     |-------14-----|-------|---------------(0)----|
     |---------11---|-------|------------------11v-|
     |--------------|-------|----------------------|…
  • let ring
    E|---------------------------------------------------------|
    B|---------------------------------------------------------|
    G|-----------9------9p7------------------------------------|
    D|-----------9------9p7------------------------------------|
    A|-F.B.------7------7------5h7-5h7-5h7-5h7-5h7-5h7-5h7-5h7-|
    E|--------0------0------0---0---0---0---0---0---0---0------|…
  • A
    Get your party gown
    Get your pigtail down
    Get your heart beatin? baby
    
    G D C G
            A
    Got my timin? right
    Got my act all tight
    It?s gotta be tonight my little
        G     G D C
    Schoolbabe
    G    E
    Your mama says you don?t
    And…
  • Bass:
    
    A|-4--5-----2-4-5-|
    E|-------4-5------|
    
    Intro solo:
    
    E|-12-12-12-12-12-12--12-10------------------|
    B|-------------------------------------12-10-|
    G|-------------------------------------------|
    
    E|-------------12-10----------------------------------------------10-|
    B|-10-12-13-------12-10----------------------------10-12-13-13-12-10-|
    G|----------14----------12-14-12-14-11-12-14-11-10-------------------|
    
    Bm
    
    
    Am
    I…
  • E|-------------------------------------|
    B|..-----22---22-----------22---22-----|
    G|--21b23--b23--b23--r21b23--b23--b23--|
    D|-------------------------------------|
    A|-------------------------------------|
    E|-------------------------------------|
    
    E|----------------------------------------|
    B|--------22p19-----22p19-----22---22-----|
    G|-r21-b23-----21b23-----21b23--b23--b23--|
    D|----------------------------------------|
    A|----------------------------------------|
    E|----------------------------------------|
    
    E|-22b23---22-20-18----------------------------------|
    B|------------------21-20-18-------------------------|
    G|---------------------------20-19-17----------------|
    D|------------------------------------20-18-17-------|
    A|---------------------------------------------20-18-|
    E|---------------------------------------------------|
    
    E|----------------------------------|
    B|-/15--t20p17--t20b22p19r_17-17__--|
    G|----------------------------------|
    D|----------------------------------|
    A|----------------------------------|
    E|----------------------------------|
    
    E|--------------------------------------|
    B|-----15--t20p17--t20b22p19r_17t20p17v-|
    G|-16-----------------------------------|
    D|--------------------------------------|
    A|--------------------------------------|
    E|--------------------------------------|
    
    E|---------------|
    B|-15-17b19_t20p-|
    G|---------------|
    D|---------------|
    A|---------------|
    E|---------------|
    
    E|--------------------------------------------------|
    B|-(b19)_t20__p19r17b19_r17p1517b19_t22-pb19_r17p15-|
    G|--------------------------------------------------|
    D|--------------------------------------------------|
    A|--------------------------------------------------|
    E|--------------------------------------------------|
    
    E|----------------------------------|-------------|
    B|-17b19t20---17b19t22---17b19t20---|-17b19__t20--|
    G|----------------------------------|-------------|
    D|----------------------------------|-------------|
    A|----------------------------------|-------------|
    E|----------------------------------|-------------|
    
    E|------------------------------------------------------|
    B|-17b19t20p(b19)t20p(b19)t20p(b19)t20p(b19)t20p(b19)t20|
    G|------------------------------------------------------|
    D|------------------------------------------------------|
    A|------------------------------------------------------|
    E|------------------------------------------------------|
    
    E|-1417-------------------------------------------------|
    B|-----t20p17t20p16t20p15t20p16t20p17t20p(b19)t20......-|
    G|------------------------------------------------------|
    D|------------------------------------------------------|
    A|------------------------------------------------------|
    E|------------------------------------------------------|…
  • E|---------|---------|-------|
    B|--7b8----|-12b13---|-15b16-|
    G|--7b9----|-12b14---|-13b14-|
    D|-10b11---|-11b12---|-15b16-|
    A|-11b12---|-11b12---|-13b14-|
    E|---------|---------|-------|
    
    E|-------------------------------------------------------------|
    B|-------------------------------------------------------------|
    G|----------------------42b2--------------------------4542-----|
    D|------------------------4-42-2-------42-2-2-------------42---|
    A|-0--------------------------4-420------4---432020---------420|
    E|--2-22-2202222-220222x-----------2-20------------202---------|
    
    E|----…
  • two short solos
    E|-------------------------------|
    B|-------------------------------|
    G|-------------------------------|
    D|-----------9-10-12-13-15p13----|
    A|-7-8-10-11-----------------14--|
    E|-------------------------------|
    
    E|-------------------------------------------------|
    B|---------13-14-13-16r14-13-----------------------|
    G|11-13-14------------------14-13h14p13p11h13p11---|
    D|----------------------------------------------12-|
    A|-------------------------------------------------|
    E|-------------------------------------------------|…
  • riff 1
    E|-----0------0--------------------|
    B|-------3---3--3------1------1----|
    G|---1------1--------3---3---3--3--|
    D|-2-------2-------2--------2----2-|
    A|---------------3---------3-------|
    E|---------------------------------|
    
    riff…
  • solo
    E|-------------------------------------------------------------|
    B|-------------------------------------------------------------|
    G|-----------------7-9b11---------------------------______-----|
    D|-----___---7---9--------------------------7-9b11--9b10r9---7-|
    A|-5---7/9------------------------___--7--9--------------------|
    E|------------------------9-9-5---7/9--------------------------|
    
    E|-------------------------------------------------------------|
    B|--------------------------7-10b12-10-9-----------------------|
    G|--------------------6/7-9--------------10-7-------9b11____r9-|
    D|------------7---9---------------------------9-6--------------|
    A|------7--9---------------------------------------------------|
    E|-7-10--------------------------------------------------------|
    
    E|-------7-----------------------------------------------------|
    B|-10b12---10--------------------------------------------------|
    G|------------9b11-7-------------------------------------7---9-|
    D|-------------------9-7-------------------7__5---7/9----------|
    A|-----------------------8b--5--___--7--9-------5--------------|
    E|------------------------------7/9----------------------------|
    
    E|------------------------------|
    B|---------------------------5--|
    G|-10r9__b11-11r9p7---7___5-5h6-|
    D|------------------9-----------|
    A|------------------------------|
    E|------------------------------|…
  • G D G D D C G D
     A E C G A E
     D A D E...
     
     fill 1,3                                  fill 2
     ----------------------------------------------------------|
     ----------------------------------------------------------|…
  • The rythm is not `regular` at several places.
    E|-------------------------------------------------------------|
    B|-------------------------------------------------------------|
    G|-------------------------------------------------------------|
    D|---------------------------5-----------------------------5---|
    A|-----------5---5-5-5-5-5h7-----7---------5---5---5-5-5h7---7-|
    E|-0--0-0-x------------------------0-0-5/7---------------------|
    
    E|-------------------------------------------------------------|
    B|-------------------------------------------------------------|
    G|-----------------------------------7-7-7-7-------------------|
    D|---------------------5-5-5-5/7-7h9---------9p7-9p7-5b--------|
    A|-7-7-----5-5-5-5-5h7----------------------------------7-7-7v-|
    E|-----5/7-----------------------------------------------------|
    
    E|-------------------------------------------------------------|
    B|----------------------------------------12-------------------|
    G|--------------------------9---9-9-11b13------13r11p9----9--/-|
    D|-----------9-9-9-11---*-*----------------------------11------|
    A|-/11-11-11---------------------------------------------------|
    E|-------------------------------------------------------------|
    
    E|--------------------------------------------------------|
    B|--------------------------------------------------------|
    G|---------------------______----12b----------------------|
    D|-------12---12h13p12-121212h14-----14-14-14----------12-|
    A|-12h14--------------------------------------12-12h14----|
    E|--------------------------------------------------------|
    
    E|------------------------------|
    B|------------------------------|
    G|-----------_______---12b------|
    D|-12---12---121212h14-------14-|
    A|------------------------------|
    E|------------------------------|
    
    E|--------------------------------------------|
    B|--------------------------------------------|
    G|----------------------------------12b-------|
    D|-14----------12-12-12-12-12-12h14-----14----|
    A|----12-12h14-----------------------------12-|
    E|--------------------------------------------|
    
    E|----------12-------------|
    B|-------------15p12-------|
    G|-12-14b16----------14b16-|
    D|-------------------------|
    A|-------------------------|
    E|-------------------------|
    
    E|----12------------------12-------------------------|
    B|-12----15p12---------12----15p12-14p12-13p12-13p12-|
    G|-------------14b16---------------------------------|
    D|---------------------------------------------------|
    A|---------------------------------------------------|
    E|---------------------------------------------------|
    
    E|--------------------------|
    B|--------------------------|
    G|-15p14p12----12h14p12-----|
    D|----------14----------14p-|
    A|--------------------------|
    E|--------------------------|
    
    E|----------------------------------------------------------|
    B|----------------------------------------------------------|
    G|-------------------------------12h14p12-------------------|
    D|p12h14p12h14p12----12----12-------------14-12h14p12----12-|
    A|----------------14----14----14----------------------14----|
    E|----------------------------------------------------------|
    
    E|----------------------------------------|
    B|----------------------------------------|
    G|----------------------------------------|
    D|-14---12-14-12--------------------------|
    A|---------------14-13-12-10------------x-|
    E|---------------------------12-10v-----x-|
    
    E|----------------------------_______-------|
    B|-15b17v---15-12-15p12h15p12-15p12---------|
    G|---------------------------------15p14p13-|
    D|------------------------------------------|
    A|------------------------------------------|
    E|------------------------------------------|
    
    E|-------|-----------------|----|------------------12-15-b17vv-|
    B|-12-15-|-b17-b16-b17-b16-|----|-b17___0vvv----15-------------|
    G|-------|-----------------|-0/-|------------------------------|
    D|-------|-----------------|-/0-|------------------------------|
    A|-------|-----------------|----|------------------------------|
    E|-------|-----------------|15…
  • piano intro arranged for guitar
    E|---------3---------------------------------------------------|
    B|-------------6---5-3-3-2-3-2-3-10-8--6---5-3-----------------|
    G|-0h2-3/4-----4---4-4-4-3-4-3-4-10-9--7---5-4-----------------|
    D|-----------5---5---------------12-10-9---7-5-----------------|
    A|-2h3-4/5-----------------------------------------------------|
    E|-------------------3-3-------------------------3-3--3-3--3-3-|…
  • solo
    E|-19-19-17-16---------------19b21---19-17-16-------|
    B|-------------19-17-16-----------------------19-17-|
    G|--------------------------------------------------|
    D|--------------------------------------------------|
    A|--------------------------------------------------|
    E|--------------------------------------------------|
    
    E|-17b19----r17---17--17--17p16-17p16-----------------|
    B|------------------------------------19p17-19p17-----|
    G|------------------------------------------------19v-|
    D|----------------------------------------------------|
    A|----------------------------------------------------|
    E|----------------------------------------------------|
    
    E|--------------|
    B|--------------|
    G|--18-16-------|
    D|--------19vvv-|
    A|--------------|
    E|--------------|
    
    E|------------------------------------------------|
    B|-19r17p15------------17---19b21_r19p17----------|
    G|----------16vv--(0)--------------------19p16vvv-|
    D|------------------------------------------------|
    A|------------------------------------------------|
    E|------------------------------------------------|
    
    E|-----21b23___r21------|
    B|-----------------19vv-|
    G|--19------------------|
    D|----------------------|
    A|----------------------|
    E|----------------------|
    
    E|-17-17-17b19---17b19r17p15-19b21vv---17-19-19b20vvv-|
    B|----------------------------------------------------|
    G|----------------------------------------------------|
    D|----------------------------------------------------|
    A|----------------------------------------------------|
    E|----------------------------------------------------|
    
    E|---------------------------------------------|
    B|---------------------------------------------|
    G|-----------------------0-----0-2-0h2---0-2-3-|
    D|-0h2p0-----0-2-3-2h3-----2-3---------3-------|
    A|-------3-------------------------------------|
    E|---------------------------------------------|
    
    E|------------------------------|
    B|------------------------------|
    G|---2-3-2h3-2p0-2--3--5--7p5h7-|
    D|------------------------------|
    A|------------------------------|
    E|------------------------------|
    
    E|------------------------------------------------|
    B|------------------------------______------------|
    G|-----5-7-8vv----7-8p7-8p7-5-7-8h10p8-10b12rbrp9-|
    D|-8----------------------------------------------|
    A|------------------------------------------------|
    E|------------------------------------------------|
    
    E|---------------------------|
    B|-----____------------------|
    G|10p9-10p9----------9-10-12-|
    D|----------12p10-12---------|
    A|---------------------------|
    E|---------------------------|
    
    E|-----------------------------------------|
    B|-------------------------13--15--15b17vv-|
    G|-14-12h14p12----12-14h15-----------------|
    D|-------------15--------------------------|
    A|-----------------------------------------|
    E|-----------------------------------------|
    
    E|-------------------------------------------------------------|
    B|-15-13-15p13-11h13-11-13-10-11-10p8-10p86-8-6-8-5-6-5--------|
    G|-------------------------------------------------------7---6-|
    D|-------------------------------------------------------------|
    A|-------------------------------------------------------------|
    E|-------------------------------------------------------------|
    
    E|-------------------------------------12b14---12b14r12-10-|
    B|--------10--12b14r12p10-12-b14v--------------------------|
    G|-7-9-----------------------------------------------------|
    D|---------------------------------------------------------|
    A|---------------------------------------------------------|
    E|---------------------------------------------------------|
    
    E|-9-10-12----------------------------------|
    B|-----------10---12---b14_r12p10-b14---10v-|
    G|------------------------------------------|
    D|------------------------------------------|
    A|------------------------------------------|
    E|------------------------------------------|
    
    E|-17----16h17p16p14-----------------------------------|
    B|-----------------------17--15--14p15-17--------------|
    G|----------------------------------------14-16-16b18v-|
    D|-----------------------------------------------------|
    A|-----------------------------------------------------|
    E|-----------------------------------------------------|
    
    E|----------------------------------------------|
    B|---17b19---17brp14----------------------------|
    G|-------------------16-14p13-------------------|
    D|----------------------------16-14-12-11-------|
    A|----------------------------------------12-12-|
    E|----------------------------------------------|…
  • solo:     -3-                                -3-
    E|-------------------------------------------------------|
    B|-----------8-10b11--b11-------10b11--b11_r----8-10b11--|
    G|----------8----------------8-----------------8---------|
    D|--------10----------------x----------------10----------|
    A|->>>10-------------------------------------------------|
    E|->>>8--------------------------------------------------|
    
    E|-----------|
    B|-b11_r10p8-|
    G|-----------|
    D|-----------|
    A|-----------|
    E|-----------|
    
    E|---------------------------------------------------------|
    B|-10b12--b12-8----8---------------------------------------|
    G|--------------10---10b12--b12vvv----10---10--------------|
    D|--------------------------------------------12-10-12-10--|
    A|---------------------------------------------------------|
    E|---------------------------------------------------------|
    
    E|---------------|
    B|---------------|
    G|---------------|
    D|--10-8----10-8-|
    A|-------10------|
    E|---------------|
    
    E|----------------------------------10b12...-|
    B|----10b11-b11-----8-11b12-11v----8---------|
    G|--8--------------8--------------8----------|
    D|---------------10-------------10-----------|
    A|-------------------------------------------|
    E|-------------------------------------------|…
  • E|---------|--2--2-|
    B|---------|--3--3-|
    G|---------|--2--2-| ETC...
    D|---------|--0--0-|
    A|---------|--0--0-|
    E|5--3^--0-|--0--0-|
    
    If you play often with Dropped D, you know how to play the funky
    notes after they sing…
  • two guitar solos
    
    1`37"
    E|-------------------------------------------------------------|
    B|-----------------------------------------------5-------------|
    G|-7-b9-7-b9-7-9r7-5--b9-7-9r7-5-9r7-5-7-6-7-6-7---7-5-----4-5-|
    D|-----------------------------------------------------7-7-----|
    A|-------------------------------------------------------------|
    E|-------------------------------------------------------------|
    
    ---3---…
  • all guitars are in drop D tuning
    
    |------------1--------------------------------------1-----|
    |--------1------3------------------------------1----------|
    |--------3------2------------------------------3----------|
    |--------3------0------------------------------3----------|
    |---------------------------------------------------------|
    |-0-------------------------------------------------------|
    |…
  • E|-----------------------------------------------------------|
    B|-----------------------------------------------------------|
    G|-15b16-b17-b17-16-b19-17b19-17-b19-17-b19r-17-17b19-17-b19-|
    D|-----------------------------------------------------------|
    A|-----------------------------------------------------------|
    E|-----------------------------------------------------------|
    
    E|------------------|
    B|------------------|
    G|-17-b19-17-b19-17-|
    D|------------------|
    A|------------------|
    E|------------------|
    
    E|------------------------------------------------------|
    B|-16-2020191817--------20--1817--------20x1817---------|
    G|--------------20191817--(0)---20191817-------20191720-|
    D|------------------------------------------------------|
    A|------------------------------------------------------|
    E|------------------------------------------------------|
    
    E|-----------------|
    B|20191817---------|
    G|--------20191817-|
    D|-----------------|
    A|-----------------|
    E|-----------------|
    
    E|----------------------20191817---------------------|
    B|20191917----------2019--------20191817191817-------|
    G|--------2019181717--------------------------201917-|
    D|---------------------------------------------------|
    A|---------------------------------------------------|
    E|---------------------------------------------------|
    
    E|--------------------------------------------|
    B|--------------------------------------20----|
    G|------------------------17___/19b__21--1720-|
    D|-2019171917--1717___/20---------------------|
    A|-----------18-------------------------------|
    E|--------------------------------------------|
    
    E|----------------------------____-----------------------|
    B|171817--172017--171817--17201817--171817--172017--1720-|
    G|------20------20------20--------20------20------20-----|
    D|-------------------------------------------------------|
    A|-------------------------------------------------------|
    E|-------------------------------------------------------|
    
    E|------------------------------20---(1818)20191817---------|
    B|-20b22vv--20191817-------------------------------20191817-|
    G|------------------2019171917vv---17-----------------------|
    D|----------------------------------------------------------|
    A|----------------------------------------------------------|
    E|----------------------------------------------------------|
    
    E|---------|-20191817-----------------20191817..-|
    B|---------|---------20191817--------------------|
    G|20191817-|-----------------20191817------------|
    D|---------|-------------------------------------|
    A|---------|-------------------------------------|
    E|---------|-------------------------------------|…
  • |----------8-11-10-----------|---------11-10-8---------|
     |-------11---------8-11b13v--|-------8---------11------|
     |-10b12----------------------|-10b12--------------10v--|
     |----------------------------|-------------------------|…
  • E|------------2----3-5---7---7---8---7-----5-----5---3---2---3-|
    B|-8--8--10---3----2-3---8---8---8---8-----7-8---5---3---1---3-|
    G|-7--9---9---2----2-2---7---9---9---7-----5-9---5---4---2---4-|
    D|-9--9--10---0----2-4-----------------------9-------0---0-----|
    A|10--7-----------------10---7-------5-----6-7---3-------------|
    E|--------8----------------------8---------------------------3-|…
  • E|---------10--9-7---5-----|-5---10---14---14-12---10----9-----|
    B|-7--10---10----8---5---7-|-7---7----10------10---10-9-10-----|
    G|-7--11---11----7---7-6-7-|-7---7----11-------9----9----9-----|
    D|-7--12---12------------7-|--------7-12------11----9----7-----|
    A|-5---9--------10-9-7---5-|-5-5-9---------------------------0-|
    D|-------------------------|-----------------------------------|
    
    E|-2---0---3---2-----------------0---0---2---2---0---2---3-|
    B|-3---3---3---3---3---3---3-----3---3---3---3---3---3---2-|
    G|-2---2---4---2---4---2---4-----2---2---2---2---2---2---2-|
    D|-0---------------5---4---5---2---0---0---0---0-----------|
    A|-----4---2---0-----------------------------------0---0-0-|
    D|-----------------5---4---2-------------------------------|
    
    E|----------10-9-------7---5---------|
    B|-7---10---10---12-10-8---5---7-----|
    G|-7----7---11---------7---7-6-7-----|
    D|-7------7-12-----------------7-----|
    A|---5--9-------------10-9-7---5-----|
    D|-0-------------------------------0-|
    
    E|-5---10---14---14-12---10----9-----|
    B|-7---7----10------10---10-9-10-----|
    G|-7---7----11-------9----9----9-----|
    D|--------7-12------11----9----7-----|
    A|-5-5-9---------------------------0-|
    E|-----------------------------------|
    
    E|-2---0---3---2-----------------------------------------------|
    B|-3---3---3---3---3---3---3-----2---2---0---2---0---3---3-----|
    G|-2---2---4---2---4---2---1-----2---2---2---2---0---4---2-----|
    D|-0---------------5---4---2-----2---2---2---2---0---5---4-----|
    A|-----4---2-----------------------0---0---0---0---------5-----|
    D|-------------4---5---4---2---------------------5-4-2-------0-|…
  • E|-17-16-17---b19vvr17p16-14-16--b17vvr16p14----------|
    B|-------------------------------------------17-------|
    G|----------------------------------------------16b18-|
    D|----------------------------------------------------|
    A|----------------------------------------------------|
    E|----------------------------------------------------|
    
    E|----------------------14-16-b17vv_r16-14-16-17--19--19b20vv-|
    B|-------------17-14-17---------------------------------------|
    G|-16-16-16b18------------------------------------------------|
    D|------------------------------------------------------------|
    A|------------------------------------------------------------|
    E|------------------------------------------------------------|
    
    E|19--17--15--17b19___r17p15-17-------------15--17--17b19-|
    B|------------------------------17__---15-----------------|
    G|--------------------------------------------------------|
    D|--------------------------------------------------------|
    A|--------------------------------------------------------|
    E|--------------------------------------------------------|
    
    E|-21b22---b22--21-|
    B|-----------------|
    G|-----------------|
    D|-----------------|
    A|-----------------|
    E|-----------------|
    
    E|-----------------------------------------------|
    B|-12b14vvv-----------12b14___t15___p14r12p9-12v-|
    G|-----------------------------------------------|
    D|-----------x-x-8-x-----------------------------|
    A|-----------x-x-x-10----------------------------|
    E|-----------x-x-x-x-----------------------------|
    
    E|-----------------------------------------|
    B|-9---------------------------------------|
    G|-x-9-11--11b_13_t14v---11b__13_r11p911p9-|
    D|-----------------------------------------|
    A|-----------------------------------------|
    E|-----------------------------------------|
    
    E|--------------------------------------------------|
    B|-12b__14-t14p12t14p11t14p10t14p9------------------|
    G|--------------------------------t14p12t14p11t14p9-|
    D|--------------------------------------------------|
    A|--------------------------------------------------|
    E|--------------------------------------------------|
    
    E|--------------------------------|
    B|--------------------------------|
    G|--------------------------------|
    D|-t14p11t14p9t14-----------------|
    A|---------------h11t14p10t14p9-7-|
    E|--------------------------------|
    
    E|-x--------x---------x---------x-x-------|
    B|-16b18----x-18b19---x-19b21---x-x-20b21-|
    G|-x--------x-----------x-------x-x-------|
    D|----------------------------------------|
    A|----------------------------------------|
    E|----------------------------------------|
    
    E|--------------------|
    B|-18__12b14t15p14r12-|
    G|--------------------|
    D|--------------------|
    A|--------------------|
    E|--------------------|
    
    E|------------------------------------|
    B|-12b14t15p14r12p9-12b14_t15__pr12p9-|
    G|------------------------------------|
    D|------------------------------------|
    A|------------------------------------|
    E|------------------------------------|
    
    E|-----------------------------------------|
    B|-12b14t17__pr12p9h12b14_t18b_b19r18rp12v-|
    G|-----------------------------------------|
    D|-----------------------------------------|
    A|-----------------------------------------|
    E|-----------------------------------------|
    
    E|------------------------------------|
    B|-9----------------------------------|
    G|---12-11-9--------------------------|
    D|-----------11-9---------------------|
    A|-----------------11-10-9-7---7------|
    E|---------------------------9---9-7v-|…
  • 1st solo
    E|------------------------------------------------------------|
    B|----------------------------------5-6----8-10-8-10-11-13-15-|
    G|-13__12__10__5-----6h85-----7-------------10------------15--|
    D|------------------------------------------------------------|
    A|------------------------------------------------------------|
    E|------------------------------------------------------------|
    
    E|--------------------------------|
    B|--------------------------------|
    G|-15--------------------------13-|
    D|------13---------------12-15----|
    A|---------15-13-12-13------------|
    E|--------------------------------|
    
    E|--------------------------------------------|
    B|------------13---13-------------------------|
    G|--------------------15-14-15-12-------------|
    D|------12-15---------------------13----------|
    A|-*-13------------------------------15-13----|
    E|-----------------------------------------15-|
    
    2nd…
  • E|-------11-14-------11-14-|-18__p17-18---1716---18p16---14-|
    B|----12----------13-------|-14__p13-14---1312---14p12---11-|
    G|-11----------14----------|--------------------------------|
    D|-------------------------|-6-------6____3-------3___//4---|
    A|-------------------------|--------------------------------|
    E|-------------------------|--------------------------------|
    
    E|-----------------------|-------------------------------------|
    B|-----------------------|-------------------19-----16--17/18v-|
    G|-----------20-18h20p18-|-18__h20p1817--18-----18-------------|
    D|-----18-21-------------|-------------------------------------|
    A|-20--------------------|-------------------------------------|
    E|-----------------------|-------------------------------------|
    
    E|---------14h16phphph--|--13/14____----------------------|
    B|-------14-------------|-----------------------------14--|
    G|-----15---------------|--------------13-14-14-13--------|
    D|-16-------------------|-----------16-------------16-----|
    A|----------------------|---------------------------------|
    E|----------------------|---------------------------------|
    
    E|-14-----------------|
    B|----14--------------|
    G|-------15-11h13hp..-|
    D|--------------------|
    A|--------------------|
    E|--------------------|…
  • |--------5-----8p5-----5h8p5-------------trem--------------|
     |----------8p5-----8p5---------5---------0---------------|
     |-8b10-----------------------8---8-7-5v--0---7---5p4-5---|
     |----------------------------------------------------------|…
  • Notations:
    A: 577655  Dm/A: x03230  A7sus: 575755  D: x57775  E VII.: x7999x
    Em7: 020030  F7: 131211 
    
    
    
    Intro:
     < > < > < > <  >   < > < > < >  < >   < >  <  >  < <
    |------------------------------------------------------|
    |-1---3---6---65----1---3---4---64---6/8--108--10---|
    |-2---4---7---76----2---4---3---53---5/7---97-----9-|…
  • C C\\H 
    The harder we play
     C              F-(D C H C)
    The faster we fall
                            Am-(D C H C)
    When we think that we know it all
                        G
    We know nothing at all
                  
    The letter arrives…
  • Tuning:E
     
    Intro:
    Dm
     
    Dm
    when the outside temperature rises
    Em7                      xx232x
    and the meaning is oh so clear
    Dm
    one thousand and one yellow daffodils
    Em7                              xx232x
    begin to dance…
  • Gtr I
    |---------|---------|---------|-----|
    |---------|---------|---------|-----|
    |---------|---------|---------|-----|
    |---------|---------|---------|-----|
    |---------|---------|---------|-----|
    |---------|---------|---------|-----|
    
    
    |---------|---------|---------|-----5-(5)--------|
    |---------|---------|---------|-------------7----|
    |---------|---------|---------|-7-----(7)-7---7--|
    |---------|---------|---------|------------------|
    |---------|---------|---------|------------------|
    |---------|---------|---------|------------------|
    
    
    |-----9---5-(5)-------|-----7---------------|---5---0-0-----5-|
    |--5--------------5---|-(5)-----8-(8)-------|---------3-2-0---|
    |-(7)---7---(7)-7---7-|--7----7----7--7-7-7-|-6---6-----------|
    |---------------------|---------------------|-----------------|
    |---------------------|---------------------|-----------------|
    |---------------------|---------------------|-----------------|…
  • GUITAR1:first chorus(2:04)  LET RING THROUGHOUT!clean sound
    (count)1 + 2 + 3 + 4 +  1 + 2 + 3 + 4 +  1 + 2 + 3 + 4 +  1 + 2 + 3 + 4 +
         e --------1-------|----1-----------|----1-----------|----1-----------|
         h ----1-------1---|--------1-------|--------1-------|--------1-------|…
  • piano intro
    e------2---5---|-0/|
    b-/2-2---3-------|-/-|
    g-2---2---2---2-|/0-|
    
    acc.gtr:
     Monday   the start of my holiday
    |-0--2----------0---2---0--0---2--|
    |-2--3----------2---3------2---3--|
    |-2--2----------2---2------2---2--|
    |-0--0----0-----0---0-------------|
    |-------0---0--------------2---2--|
    |---------------------------------|
    
    Freedom…
  • [: A E D E A :]
    
    	    A              D
    	You never heard my song before
    	    A
    	The Music was too loud
    	                    D
    	But now I think you hear me well
    	    A
    	For now we both know how
    	   E                  D
    	No…
  • Chords Used:
    
        A  Am  A7 Asus4 B   Bm  Bb  C   D   Dm  D7  D9  E   E7  F  F#m7 G   G7
    e|--0---0---0---0---2---2---1---0---2---1---2---0---0---0---1---2---3---3--|
    b|--2---1---2---3---4---3---3---1---3---3---1---1---0---0---1---2---3---3--|
    g|--2---2---0---2---4---4---3---0---2---2---2---2---1---1---2---2---0---4--|
    d|--2---2---2---2---4---4---3---2---0---0---0---0---2---0---3---2---0---3--|
    a|--0---0---0---0---2---2---1---3---------------x---2---2---3---4---2---5--|
    E|------------------2---2---1-------------------2---0---0---1---2---3---3--|
    
    
    	Verse…
  • A                    B9
    One dream, one soul, one prize, one goal
    
        Dmaj7            A
    One golden glance, of what should be (its a kind of magic)
    
                            B9                Dmaj7          A
    One shaft of…
  • |-----------------------------|----------------------------|
    |-----------------------------|----------------------------|
    |-----------------------------|----------------------------|
    |------------------------6--|-------------------------6--|
    |--------------2---2-4-5------|---------------2---2-4-5----|
    |-2---4-5-6-------------------|-2---2-4-5-6----------------|
    
    |-------------------------------|---------------------|
    |-------------------------------|---------------------|
    |-------------------------------|---------------------|
    |--------------------------6--|-----------------9---|
    |----------------2---2-4-5------|-------------4-5-7---|
    |-2---2-4-5-6-------------------|-2---4-5-6-7---------|
    
    |-----------------------------||-------------------------------------|
    |-8b10--b10--10r8-7-----------||-8b10--b10--10r8p7-------------------|
    |-------------------9---------||-------------------9-6/7-8-9---------|
    |---------------------10r9-7--||-------------------9---------10r9-7--|
    |-----------------------------||-------------------------------------|
    |-----------------------------||-------------------------------------|
    
    solo
    Right…
  • F                    Dm
    There's no living in my life anymore.
    
        Am                         Bb           F
    The seas have gone dry and the rain stopped falling.
    
    F                       Dm
    Please don't you cry anymore…
  • INTRO
    
    E--2--------2-----------------------------------------------------------------------------|
    B--3--------3-----------------------------------------------------------------------------|
    G--2--------2-----------------------------------------------------------------------------|
    D--0--------0-----------------------------------------------------------------------------|
    A-----------------------------------------------------------------------------------------|
    E-----------------------------------------------------------------------------------------|
    
    Whereas…
  • INTRO
    
    E--3-----
    B--0-----
    G--0-----
    D--0-----
    A--2-----
    E--3-----
    
    GTR 2 [repeat three times]
    
    E-----------------------------------------------------------------------------------------
    B-----------------------------------------------------------------------------------------
    G-----------------------------------------------------------------------------------------
    D--2--2-2-2---2--2-2-2---2--2-2-2------------2--2-2-2---2--2-2-2---2--2-2-2---------------
    A--0--0-4-0---0--0-4-0---0--0-4-0---5-5-5-5--0--0-4-0---0--0-4-0---0--0-4-0---3-5-5-------
    E-----------------------------------------------------------------------------------------
    
    GTR…
  • /=slide
    p=pull off
    
    solo
    e|------------------------------------------------------------------------|
    B|------not exact------------not exact------------------------------------|
    G|------------------------------------------------------------------------|
    D|----00000000000000-3-3p0-0-000000000-3-00-5-00-6-00-7-00000-3-0-5p3p0-3-|
    A|-3/5--------------------------------------------------------------------|
    E|------------------------------------------------------------------------|
    
    
    e|---------------------------------------------------------------------|
    B|---------------------------------------------------------------------|
    G|---------------------------------------------------------------------|
    D|---------------0000-3-000-5-000-6-000-7-000-9-000-10-000-11-000------|
    A|-5-4-3----------------------------------------------------------11/1-|
    E|-------5-4-3-1-------------------------------------------------------|…
  • G           G/B
    It's Winter fall
                       Em     G/D
    Red Skies are gleaming
    Am                Am   
    Seagulls are flying over
    Am
    Swans are floatin' by
    C/G
    Smoking chimney tops
               Gm
    Am I dreaming?…
  • Orchestra : (Fade in) 
    	    F#sus4 F#  A  B  C#m  B  A  B  C#m B  A  B  E
    	 (Use different progressions of A B and C#m going up)
    
       E
    -------
    -------
    ---9---	 This is the E chord used.
    ---9---  The ordinary E chord can…
  • G
    |--------------------------15--------------------------------------|
    |-/13v----15b__16--13v--------15b__16--13v__----------------------|
    |----------------------------------------------8r7p5---------------|
    |----------------------------------------------------7p5---5h7-----|
    |--------------------------------------------------------7-----0---|
    |------------------------------------------------------------------|
    
    0:20
    |------------------------------|
    |---------------10-------10---|
    |-9--------------9--------9---|
    |-7--------------7--------7---|
    |-0------x-x-x-x-0-------------|
    |------------------------------|
    
    0:25
    |-----------------------------------------------------------------|----|
    |-----------------------------------------------------------------|----|
    |-----------------------------------------------------------------|-0/-|
    |-1---------------2---------------4-------------------------------|-/0-|
    |-----2---3---2-------2---3---2-------2---3---2---0---2h3-2---*---|----|
    |-----------------------------------------------------------------|----|
    
    0:37
    |-----2-------2-------2-----------|
    |-----3-------3-------3---1-------|
    |-9---2---9---2---9---2---2---4---|
    |-9---0---9---0---9---0---2---4---|
    |-7-------7-------7-------0---2---|
    |---------------------------------|
    
    (0:51)
    |---------------------------------------------|
    |---------------------------------------------|
    |---------------------------------------------|
    |-----98-9-----------9__8-------------------|
    |-x-x-76-7-----------7__6-9---9-9----7-9----|
    |-----------0-0-0-0-0-------7-7-7-7-10-----10-|
    
    
    |-----------------2---2-----2-------------------------------------|
    |-----1-----------3-3-3-----3-------------------------1-----------|
    |-2-------2-------2-------2-----------0-------0---0---0-------0-0-|
    |-2-----------2---0---------------0-----0---0-----2-------0-------|
    |-0-------------------------------2-------2-------3-------2-------|
    |---------------------------------3-------------------------------|
    
    1:02
    |---------------------------------|-----------------------------------|
    |---------------------------------|-----------------------------------|
    |-----5-5-5-5---5-------5---___---|-----5-5-5-5-----------------___---|
    |-----5-5-5-5---5-------5---7p5---|-----5-5-5-5---------------5-7p5---|
    |-0-0---------------5-----------7-|-0-0-----------5---6---7---------7-|
    |---------------------------------|-----------------------------------|
    
    |------------------------------------------------------|
    |------------------------------------------------------|
    |-----5-5-5-5---7---5---7---7p5-----------------9-9---|
    |-----5-5-5-5---7---5---7---7p5-----------------9-9---|
    |-0-0---------0------------------3----4----5----7-7---|
    |------------------------------------------------------|
    
    |---------------------------|
    |------------10------10__--|
    |------------9--------9__--|
    |-7----------7--------7__--|
    |-0-------000-------00------|
    |---------------------------|
    
    riff(0:25)
    riff(0:37)
    riff(0:51)
    
    G…
  • Tuning:E
    
    A                               D                  Dsus2         A
    I think I'm going back to the things I learnt so well in my youth 
    
                                     D        Dsus2                   A
    I think…
  • Standard tuning (EADGBE)
    
    Notes:                 Chord formations:
    / - slide up           E    (079997)
     - slide down         A    (x02220) or (577655)
    h - hammer-on          Am   (x02210) or (577555)
    p - pull-off…
  • intro solo
    
    |-7b___9vv-----7--4--------------------------|
    |x-------------------7--6--5--4--------------|
    |--------------------------------7--6--4bv---|
    |--------------------------------------------|
    |--------------------------------------------|
    |--------------------------------------------|
    
    
    
    |-----------------------------------------------------------|
    |-6b__8r_6p4-6p4-6p4-5p4---4--------------------------------|
    |------------------------6---7p6p-4----x6--x4b-----------xx-|
    |-----------------------------------------------6p4------xx-|
    |---------------------------------------------------6p4-xx-|
    |-----------------------------------------------------------|
    
    
    
    |------------------------------------------------------------------------|
    |------------------------------------------------------------------------|
    |-t9p6t9p4t9p4t9p4t9p5t9p4t9p5t9p6t9p5t9p4t9p5t9p6t9p5t10p5t10p6t10p7t10p6
    |------------------------------------------------------------------------|
    |------------------------------------------------------------------------|
    |------------------------------------------------------------------------|
    
    
    
    |--------------------------------------------------------------------|
    |--------------------------------------------------------------------|
    t10p5t10p6t10p7t10p6t10p5t10p6t10p7t10p8t10p7t10p7t10p8t11p7t11p8t11p9
    |--------------------------------------------------------------------|
    |--------------------------------------------------------------------|
    |--------------------------------------------------------------------|
    
    
    
    |----------------------------------------------------------------------|
    |----------------------------------------------------------------------|
    t11p8t11p7t11p8t11p9t11p8t12pXt12p9t12p10t12p9t12p8t12p9t12p10t12p8t12p9
    |----------------------------------------------------------------------|
    |----------------------------------------------------------------------|
    |----------------------------------------------------------------------|
    
    
    |--------------------------------------------------------------------|
    |--------------------------------------------------------------------|
    t12p10t13p9t13p10t13p11t14p9t14p10t14p11t14p10t14p11t14p10t14p11t14p12
    |--------------------------------------------------------------------|
    |--------------------------------------------------------------------|
    |--------------------------------------------------------------------|
    
    
    |------------------------------------------------------------------|
    |---------------------------------------_____----_____-------------|
    t15p10t15p11t15p12t15p12t15p13t15p11t15p12h13t15p13p12t16p12t16p14-|
    |------------------------------------------------------------------|
    |------------------------------------------------------------------|
    |------------------------------------------------------------------|
    
    
    
    |---------------------------------------------------------------------------|
    |--------------------t18p14t18p15t18p16t19p17t19p18--19--20/--21--21b__22v--|
    |13t17p14t17p15t17p16-------------------------------------------------------|
    |---------------------------------------------------------------------------|
    |---------------------------------------------------------------------------|
    |---------------------------------------------------------------------------|
    
    
    
    '..garage…
  • F              Gm
    In another world
    C7                    F
      Under another sky
     Dm                 Gm     C7
      I see another story waiting
                F
      To be told
    
    
    F                   Gm
      And another You…
  • intro
    ->0----------->6---10---12---13------------>-8---12---13----------
    ->1-----------3----------->8----------------------------8--------------------
    -----------6------------------------------------------------------
    
    --8-------8-10-----6-5----5----3----3----
    -11----11--------6---6----5----3----6----
    ----10---------7-----5----5----3----6----
    --8--------------------------------------
    -------------8---------------------------
    -----------------------------------------
    
    
    verse:
    ---1---------0-1-----------1-------3---1-----------
    ---3---3-2-----3-------3---3---3-2-----3-------3---
    -2-------2-------2---------2-----2---2---2---------
    ---0-----2-----0---3-0---0-0-----2-----0---3-0---0-
    --------(4)----------------------------------------
    ---------------------------------------------------
    
    ---1-----0----------1-------------0---1-------
    ---3-----1-----1------------------3-2-3-------
    ---2-----0-----2------------3---0-2---2-------
    ---0---0----------3-----3---5-----------0-----
    ---------3---3--------------------0-----------
    ---------------1------1---1-3-----------------
    
    
    chorus
    -------------------------------1-----0---1-----------
    -----------------1-------1-----3-----1---1-----------
    -0---2-------3---2-------2-----3-----3---2-----------
    -2---3-------5---3-------3---------------3-------3---
    -3---3-----------0-------------1-----3-----3-0-------
    -0---1-------3-----------1---------------------1---1-
    
    
    -1-----0-----1-----1---1--------------------------------------------------
    -1-----1-----3-----1---3-----------------------------------1-------1-----
    -2-----0-----2-----2---3-------------------0---2-------3---2-------2-----
    -3---3-2---2-0-----------------------0-----2---3-------5---3-------3-----
    -------------------3-----1-----3-----------3---3-------------0-----------
    -------------------------------------------------1-----3-----------1-----
    
    
    -1-----0---1------------1-----0-----1-----1-----1----
    -3-----1---1------------1-----2-----3-----1-----3----
    -3-----3---2------------2-----0-----2-----2-----3----
    -------------3------3---3---3-------0----------------
    -1-----3------3-0-------------0---0-------3-----1----…
  • part one
    |---------------t22p15t22p17t22p18t22p17t22p15---------------|
    |-15t22p17t22p18------------------------------t22p18t22p17t22p
    |------------------------------------------------------------|
    |------------------------------------------------------------|
    |------------------------------------------------------------|
    |------------------------------------------------------------|
    
    |--------------t22p15t22p17t22p18t22p17_v_--|
    p15t22p17t22p18------------------------------|
    |--------------------------------------------|
    |--------------------------------------------|
    |--------------------------------------------|
    |--------------------------------------------|
    
    |-----------------______----------------------------------------------------|
    |-10__/15--17--18_/20b22--b22_v_r20_-----b20__r-18--16---------------------|
    |--------------------------------------------------------15--b19___r17__---|
    |---------------------------------------------------------------------------|
    |---------------------------------------------------------------------------|
    |---------------------------------------------------------------------------|
    
    |---------17--18--20__v_--18-17---------------------------------------|
    |-18--20------------------------20-18-20-b22_v__--20-18-17-18-echo----|
    |---------------------------------------------------------------------|
    |---------------------------------------------------------------------|
    |---------------------------------------------------------------------|
    |---------------------------------------------------------------------|
    
    |------------------------------------------________---|
    |---------17--18--20--b22_v__r20-18--17-18-17b18r17---|
    |-----19----------------------------------------------|
    |-19--------------------------------------------------|
    |--(0)------------------------------------------------|
    |-----------------------------------------------------|
    
    |--------17-18-20-20b22_v__---/22b24-----b24--b24___r22__-----|
    |-----20---------------------------------------------------------|
    |-19-------------------------------------------------------------|
    |----------------------------------------------------------------|
    |----------------------------------------------------------------|
    |----------------------------------------------------------------|
    
    |--------------------------------------------------|
    |-10_/15t2215t22p15t22p17t22p18/20b22__b23r22r20---|
    |--------------------------------------------------|
    |--------------------------------------------------|
    |--------------------------------------------------|
    |--------------------------------------------------|
    
    |-----------------------------------15-17-15-17-18-17-18-20-20b21__|
    |-18b20--b20-b20-b20-b20__r18-16-18--------------------------------|
    |------------------------------------------------------------------|
    |------------------------------------------------------------------|
    |------------------------------------------------------------------|
    |------------------------------------------------------------------|
    
    |_r20p18-20b21__r20p18-20b21---20-----18--22b24__v_|
    |--------------------------------------------------|
    |--------------------------------------------------|
    |--------------------------------------------------|
    |--------------------------------------------------|
    |--------------------------------------------------|
    
    
    part…
  • Verse 1:
    
      Am            D         G             Em
    I might be at a table and suddenly I'll catch
      C               D               G
    a fleeting vision of her crystal seas
         Am                D            G…
  • G            A   G A 
    Calling all boys 
    G           A    G A
    calling all girls 
    G           A          G     A 
    Calling all people on streets 
    G               A G A
    Around the world 
    G         A      G A
    Take this message…
  • 0:00
    G|------------------------------------------------------|
    D|------------------------------------------------------|
    A|----------4-----6-----4-----6-----4------8--6--4-6-4-6|
    E|--0-0-4-6-----6-----4-----6-----4-----6---------------|
    
    
    G|------------------------------------------------------|
    D|------------------------------------------------------|
    A|----------4-----6-----4-----6-----4------8--6--4-6-4-6|
    E|--0-0-4-6-----6-----4-----6-----4-----6---------------|
    
    0:14…
  • [intro]    D  A    x 3
    
    [verse]          D        C#m7     Bm7                        G      A7
            It's the sad eyed goodbbye yesterday's moments I'll remember
                     D            C#m7      Bm7           G…
  • more guitars arr. for one
    
    |----------------------------|
    |----------------------------|
    |----------------------------|
    |----------------------------|
    |-5===--2-3-----/5---3-------|
    D-------2-3-----/5---3-0-----|
    
    
    |-----------------------------------------------------------------|
    |------------------------------------------------->solo-fill------|
    |-*-------*-------*-------*-------*-------*-------*-------*-------|
    |-----------------------------------------------------------------|
    |-0---------------------------------------------------------------|
    |-0---0-0-0-0-0-0-0-0-0-0-0-0-0-0-0-0-0-0-0-0-0-0-0-0-0-0-0-0-0-0-|
    
    |--------------------------|
    |--------------------------|
    |-*-------*-------*---***--|
    |--------------------------|
    |-------2-3---5------------|
    |-0-0-0-2-3---5---0--------|
    
    
    small…
  • bass
    
    1 + 2 + 3 + 4 +  1 + 2 + 3 + 4 +  1 + 2 + 3 + 4 +  1 + 2 + 3 + 4 +  
    ----------------|----------------|----------------|----------------|
    ----------------|----------------|----------------|----------------|
    ----------------|----------------|----------------|----------------|
    0------00-------|0------00------0|5------55-------|0------00------0|…
Наверх