Аккорды «Quiet Riot»

Quiet Riot
Несмотря на то, что "Quiet Riot" стала первой металлической бандой, прорвавшейся к вершине чартов "Billboard", успех ее был кратковременным. Коллектив образовался в 1975 году, когда гитарист Рэнди Роадс (6 декабря 1956 - 19 марта 1982) и басист Келли Гарни в поисках фронтмена для новой группы наткнулись на Кевина ДюБроу (29 октября 1955 - 19 ноября 2007). Когда состав был доукомплектован барабанщиком Дрю Форситом, квартет атаковал лос-анджелесскую клубную сцену. Однако если с концертами все складывалось… Читать полностью... Несмотря на то, что "Quiet Riot" стала первой металлической бандой, прорвавшейся к вершине чартов "Billboard", успех ее был кратковременным. Коллектив образовался в 1975 году, когда гитарист Рэнди Роадс (6 декабря 1956 - 19 марта 1982) и басист Келли Гарни в поисках фронтмена для новой группы наткнулись на Кевина ДюБроу (29 октября 1955 - 19 ноября 2007). Когда состав был доукомплектован барабанщиком Дрю Форситом, квартет атаковал лос-анджелесскую клубную сцену. Однако если с концертами все складывалось более-менее удачно, то подписаться на какой-нибудь лейбл музыкантам никак не удавалось. В течение двух лет "Quiet Riot" тщетно пытались решить проблему, пока им не пришла в голову идея развести на это дело ненасытных до хард-рока японцев. Заключив контракт с тамошним филиалом "CBS / Sony", группа наконец-то записала первый виниловый блин. Если "Quiet Riot I" получился сыроватым и напоминал компот из Sweet, Alice Cooper и Humble Pie, то второй альбом, показавший растущее мастерство Роадса, был более сфокусированным. К моменту выхода "Quiet Riot II" Гарни сменил кубинец Руди Сарзо. Если эта замена прошла безболезненно, то последовавший вскоре уход Рэнди к Осборну явился тяжелым ударом для группы и привел к первому ее распаду. ДюБроу тут же собрал проект имени себя самого, однако после смерти Роадса вернулся к названию "Quiet Riot". В обновленный состав помимо Кевина вошли Фрэнки Банали (ударные), Карлос Кавазо (гитара) и Руди Сарзо (бас). Именно эта конфигурация произвела на свет самый знаменитый альбом "QR" – "Metal Health". Сопровождаемый хит-синглом со слэйдовским кавером "Cum on Feel the Noize", диск через полгода после релиза преодолел платиновый рубеж и занял лидирующие позиции в американских чартах. Песни "Metal Health" и "Cum on Feel the Noize" попали в тяжелую ротацию на MTV, а группа тем временем нарезала круги в компании Scorpions, ZZ Top, Iron Maiden, Loverboy, Black Sabbath и Judas Priest. Увидев такой расклад, лейбл "Pasha Records" сообразил, что надо ковать железо пока горячо, загнал музыкантов в студию и потребовал продолжения "Metal Health". Так оно и вышло, и альбом "Condition Critical" вполне мог бы называться "Metal Health Part 2". Сделанный по тому же рецепту, что и предшествующий лонгплей, этот диск также включал в себя кавер от Slade (на этот раз "Mama Weer All Crazee Now"). Несмотря на то, что продажи "Condition Critical" были достаточно высоки, не всем понравилось повторение пройденного, и "Quiet Riot" растеряли часть аудитории. Первым почувствовал неладное Сарзо, который подал в отставку, уступив место Чаку Райту. Записанный в 1986 году "QR III" отличался засильем клавишных и задвинутыми на второй план гитарами. Музыкальный и текстовый материал оставлял желать лучшего, поэтому слушатели предпочли покупать пластинки Cinderella, Europe. К тому времени ДюБроу, погрязший в алкоголе и наркотиках достал своих партнеров настолько, что они выставили его за дверь. С новым вокалистом Полом Шортино группе удалось записать всего один альбом, а после ухода Банали в W.A.S.P. проект распался вторично. В начале 90-х ДюБроу восстановил отношения с Кавазо, и при помощи барабанщика Бобби Рондинелли и басиста Кевина Хиллери они реанимировали вывеску "Quiet Riot". В 1993 году коллектив выпустил неплохой альбом "Terrified", однако из-за отсутствия какого-либо промоушена со стороны "Moonstone Records" коммерческий провал был обеспечен. В попытке исправить ситуацию ДюБроу перетряхнул архивы и в том же году выбросил на рынок диск "The Randy Rhoads Years". Фаны Роадса, конечно, порадовались, однако коренного изменения не произошло, и после мрачно-модернового "Down to the Bone" команда замолчала на долгое время. В 1999 году "Quiet Riot" вернулись с концертником "Alive & Well", записанным золотым составом времен "Metal Health". Спустя два года вышла новая студийная работа, еще через такое же время появился первый DVD. Его релиз еще не состоялся, а группа, раздираемая внутренними раздорами, распалась в третий раз. Как бы то ни было, но уже в 2005-м обновленный состав "Quiet Riot" вовсю гастролировал по Америке... Но к сожалению, история команды Quiet Riot завершилась на более чем трагической ноте, так как 25 ноября 2007 года вокалист и духовный лидер коллектива Кевин ДюБроу был найден мёртвым в собственном доме в Лас Вегасе. Причиной смерти, как выяснилось в последствии, являлась передозировка кокаина, несмотря на то, что ДюБроу на протяжении многих лет заявлял о своей полной свободе от наркотической зависимости. Безвременная смерть этого выдающегося музыканта явилась тяжёлой утратой для сонма поклонников и адептов стиля, и останется одним из самых печальных событий в истории мелодического хард-рока. Дискография: Quiet Riot I - 1977 Quiet Riot II - 1979 Metal Health - 1983 Condition Critical - 1984 QR III - 1986 Quiet Riot - 1988 Terrified - 1993 Quiet Riot: The Randy Rhoads Years - 1993 Down To The Bone - 1995 Alive & Well - 1999 Guilty Pleasures - 2001 Rehab - 2006 Скрыть...
Популярные аккорды Quiet Riot:
алфавиту | просмотрам | случайно
  • E A D G B E
    
    Intro: Drums
    
    ...wild, wild, wild...
    
    e-----------------------------------------------------------------
    b-----------------------------------------------------------------
    g-----------------------------------------------------------------
    d-----------------------------------------------------------------
    a-----------------------------------------------------------------
    e---------7/19---------------------------------------------------
    
    Verses:
    
    pm
    e-----------------------------------------------------------------
    b-----------------------------------------------------------------
    g-----------------4-4-4-4-4-4-4-4---------------------------------
    d-5-5-5-5-5-5-5-5-4-4-4-4-4-4-4-4-2-2-2-2-2-2-2-2-2-2-2-2-2-2-2-2-
    a-5-5-5-5-5-5-5-5-2-2-2-2-2-2-2-2-2-2-2-2-2-2-2-2-2-2-2-2-2-2-2-2-
    e-3-3-3-3-3-3-3-3-----------------0-0-0-0-0-0-0-0-0-0-0-0-0-0-0-0-
    
    e--------3-------------------------------------3------------------
    b--------3-----------3-------------------------3----------3-------
    g-2------0-----------2------------2------------0----------2-------
    d-2------0-----------0------------2------------0----------0-------
    a-0------x------------------------0------------x------------------
    e--------3-------------------------------------3------------------
    
    ...any…
  • INTRO:
    e|--------------|
    B|--------------|
    G|--3-3--3-3----|
    D|--3-3--3-3----|
    A|--1-1--1-1----|
    E|--------------|
    
    
    e|------------------|---------------|---------------|-----------------|
    B|------------------|---------------|---------------|-----------------|
    G|----5-3-0--2-3-0--|-5-3-0--2-3-3--|-5-3-0--2-3-3--|-----------------|
    D|-5--5-3-0--3-3-0--|-5-3-0--3-3-1--|-5-3-0--3-3-1--|-1p0-0-0---------|
    A|-5----------------|---------------|---------------|---------1p0-0---|
    E|-3----------------|---------------|---------------|-----------------|
    
    
    e|------------------|---------------|---------------|-----------------|
    B|------------------|---------------|---------------|-----------------|
    G|----5-3-0--2-3-0--|-5-3-0--2-3-3--|-5-3-0--2-3-3--|-----------------|
    D|-5--5-3-0--3-3-0--|-5-3-0--3-3-1--|-5-3-0--3-3-1--|-1p0-0-0---------|
    A|-5----------------|---------------|---------------|---------1p0-0---|
    E|-3----------------|---------------|---------------|-----------------|
    
    e|------------------|
    B|------------------|
    G|------------------|…
  • Chorus and Intro:
      A    C G   G C G C
    E-0----3-3---3-3-3-3-
    B-2----5-3---3-5-3-3-
    G-2----5-4---4-5-4-4-  repeat this a few times...
    D-2----5-5---5-5-5-5-
    A-0----3-5---5-3-5-5-
    E-0----3-3---3-3-3-3-
    
    
    Verses:
      A ? C D 
    E-0-2-3-5
    B-2-4-5-7
    G-2-4-5-7…
  • Tuning: Standard
    
    This song is in D major.
    
    Intro
    e|---7--7---(7)-------7------------------------7--7---(7)--7-(7)-------------|
    B|---8--7---(7)-------5--7---(7)---------------8--7---(7)--5-(5)----7---(7)--|
    G|---9--7---(7)-------5--7---(7)---------------9--7---(7)--5-(5)----7---(7)--|
    D|-----------------------0---(0)------------------------------------0---(0)--|
    A|---------------------------------------------------------------------------|
    E|---------------------------------------------------------------------------|
    
    e|---7--7---(7)-------7------------------------7--7---(7)--7----(7)----------|
    B|---8--7---(7)-------5--7---(7)---------------8--7---(7)--5----(5)----------|
    G|---9--7---(7)-------5--7---(7)---------------9--7---(7)--5----(5)----------|
    D|-----------------------0---(0)---------------------------------------------|
    A|---------------------------------------------------------------------------|
    E|---------------------------------------------------------------------------|
    This…
  • Play this 2x            then it goes to this         or do the other one
    e|-------------------------------|------------------------------|-------|-------|
    B|--------8--8-7------8--8--8-7--|--------8--8-7------8--8--8-7-|-------|-------|
    G|--------9--9-7------9--9--9-7--|--------9--9-7------9--9--9-7-|-----2-|-----7-|
    D|--0-0-0--------0-0--0--0--0----|--0-0-0--------0-0--0--0--0---|-3-4---|-8-9---|
    A|-------------------------------|------------------------------|-------|-------|
    E|-------------------------------|------------------------------|-------|-------|…
  • Tuning:Standard
    
    e|---------------------------------------------------------------------------|
    B|---------------------------------------------------------------------------|
    G|-2----5--------------5-2-5---2---------------------------------------------|
    D|-2----5---5-----5----5-2-5---2-----5-/-7-----------------------------------|
    A|-0----3---5-----5----3-0-3---0-----5-/-7-----------------------------------|
    E|----------3-----3------------------3-/-5-----------------------------------|…
  • E|---------------------|--|---------------------|----|play this part 2x
    B|---------------------|3-|---------------------|3-2-|and you play this 
    G|---------------------|2-|---------------------|2-2-|stuff on the verses…
  • the chicks in the town been 
             3x                      runnin' around          their on the loose  
    E|-----------------|---------|------------------------------|-------------|
    B|-----------------|---------|------------------------------|-------------|
    G|-----------------|---------|------------------------------|-------------|
    D|--------7---5----|---------|------------------------------|-7---5--2----|
    A|--5-----5---3----|--5-5-5--|-3-3-3-3-3-3-3----------------|-5---3--0----|
    E|--3--------------|--3-0-3--|---------------5-5-5-5-5-5-5--|-------------|…
  • Tuning: Standard (with distortion)
    
    e|---------------------------------------------------------------------------|
    B|---------------------------------------------------------------------------|
    G|---------------------------------------------------------------------------|
    D|---------------------------------------------------------------------------|
    A|----0/0/3--5--2/3----0--3--5--2/3----0/0--3--5--2/3----0--3--5--2/3--------|
    E|---------------------------------------------------------------------------|
    
    e|--------------------------------|
    B|--------------------------------|
    G|--------------------------------|
    D|--------------------------------|
    A|----0--5--0--5--0----0--3--0----|
    E|--------------------------------|…
  •    5x        5x       5x
    E--------|--------|--------|
    B--------|--------|--------|
    G--------|-3h5----|-5h7----|
    D-3h5----|-----4--|-----6--|
    A-----4--|--------|--------|
    E--------|--------|--------|
  • E|----------------------------------|-----|------------------------------|-------|
    B|----------------------------------|-----|------------------------------|-------|
    G|----------------------------------|--8--|------------------------------|-----8-|
    D|----------------3------3----------|--8--|------------3------3----------|--8--8-|
    A|---------------------------5---3--|--6--|------------------------5---3-|--8--6-|
    E|-/---1---4---5--------------------|-----|-1---4---5--------------------|--6----|
    
    
    E|------------------------------|-----|------------------------------|-------|
    B|------------------------------|-----|------------------------------|-------|
    G|------------------------------|--8--|------------------------------|-----8-|
    D|------------3------3----------|--8--|------------3------3----------|--8--8-|
    A|-----------------------5---3--|--6--|------------------------5---3-|--8--6-|
    E|-1---4---5--------------------|-----|-1---4---5--------------------|--6----|
    
    
    
    E|------------------------------|-----|------------------------------|-------|
    B|------------------------------|-----|------------------------------|-------|
    G|------------------------------|--8--|------------------------------|-----8-|
    D|------------3------3----------|--8--|------------3------3----------|--8--8-|
    A|-----------------------5---3--|--6--|------------------------5---3-|--8--6-|
    E|-1---4---5--------------------|-----|-1---4---5--------------------|--6----|
    
    
    E|------------------------------|-----|------------------------------|-------|
    B|------------------------------|-----|------------------------------|-------|
    G|------------------------------|--8--|------------------------------|-----8-|
    D|------------3------3----------|--8--|------------3------3----------|--8--8-|
    A|-----------------------5---3--|--6--|------------------------5---3-|--8--6-|
    E|-1---4---5--------------------|-----|-1---4---5--------------------|--6----|
    
    E|------------------------------|-----|------------------------------|-------|
    B|------------------------------|-----|------------------------------|-------|
    G|------------------------------|--8--|------------------------------|-----8-|
    D|------------3------3----------|--8--|------------3------3----------|--8--8-|
    A|-----------------------5---3--|--6--|------------------------5---3-|--8--6-|
    E|-1---4---5--------------------|-----|-1---4---5--------------------|--6----|…
  • E|----------------------------------|-----|------------------------------|-------|
    B|----------------------------------|-----|------------------------------|-------|
    G|----------------------------------|--8--|------------------------------|-----8-|
    D|----------------3------3----------|--8--|------------3------3----------|--8--8-|
    A|---------------------------5---3--|--6--|------------------------5---3-|--8--6-|
    E|-/---1---4---5--------------------|-----|-1---4---5--------------------|--6----|
    
    
    E|------------------------------|-----|------------------------------|-------|
    B|------------------------------|-----|------------------------------|-------|
    G|------------------------------|--8--|------------------------------|-----8-|
    D|------------3------3----------|--8--|------------3------3----------|--8--8-|
    A|-----------------------5---3--|--6--|------------------------5---3-|--8--6-|
    E|-1---4---5--------------------|-----|-1---4---5--------------------|--6----|
    
    
    
    E|------------------------------|-----|------------------------------|-------|
    B|------------------------------|-----|------------------------------|-------|
    G|------------------------------|--8--|------------------------------|-----8-|
    D|------------3------3----------|--8--|------------3------3----------|--8--8-|
    A|-----------------------5---3--|--6--|------------------------5---3-|--8--6-|
    E|-1---4---5--------------------|-----|-1---4---5--------------------|--6----|
    
    
    E|------------------------------|-----|------------------------------|-------|
    B|------------------------------|-----|------------------------------|-------|
    G|------------------------------|--8--|------------------------------|-----8-|
    D|------------3------3----------|--8--|------------3------3----------|--8--8-|
    A|-----------------------5---3--|--6--|------------------------5---3-|--8--6-|
    E|-1---4---5--------------------|-----|-1---4---5--------------------|--6----|
    
    E|------------------------------|-----|------------------------------|-------|
    B|------------------------------|-----|------------------------------|-------|
    G|------------------------------|--8--|------------------------------|-----8-|
    D|------------3------3----------|--8--|------------3------3----------|--8--8-|
    A|-----------------------5---3--|--6--|------------------------5---3-|--8--6-|
    E|-1---4---5--------------------|-----|-1---4---5--------------------|--6----|…
  • The price is high, when you keep the score
    -----------------------------------------|
    -----------------------------------------|
    --5------7------9------------------------|
    --5------7------9------------------------|
    --3------5------7------------------------|
    -----------------------------------------|
    
    Take…
  • e|-------------|-------------|--------------------------------------|
    B|-2--2--2-----|-3--3--3-----|-3--3--3----3--3--3-----2----2--2-----|
    G|-2--2--2-----|-2--2--0-----|-2--2--0----2--2--0-----2----2--2-----|
    D|-2--2--2-----|-0--0--0-----|-0--0--0----0--0--0-----2----2--2-----|
    A|-0--0--0-----|-------------|-----------------------------0--0-----|
    E|-------------|-2--2--3-----|-2--2--3----2--2--3-----2-------------|…
Наверх