Аккорды «Ra»

Ra
Ra - американская рок-группа, которая получила название от Египетского бога Солнца Ра. Была основана в 1990-х. Текущий состав: Sahaj Ticotin (вокал, гитара) Andy Ryan (ударные) Ben Carroll (гитара) PJ Farley (бас-гитара) Выход их первого полноформатного альбома “From One” состоялся в октябре 2002 года. Он содержал композиции с их демо-альбома “One” и два трека, предназначенных для радио “Do You Call My Name” и “Rectifier”. В июне 2005 года Ra заканчивают работу над альбомом "Duality".… Читать полностью... Ra - американская рок-группа, которая получила название от Египетского бога Солнца Ра. Была основана в 1990-х. Текущий состав: Sahaj Ticotin (вокал, гитара) Andy Ryan (ударные) Ben Carroll (гитара) PJ Farley (бас-гитара) Выход их первого полноформатного альбома “From One” состоялся в октябре 2002 года. Он содержал композиции с их демо-альбома “One” и два трека, предназначенных для радио “Do You Call My Name” и “Rectifier”. В июне 2005 года Ra заканчивают работу над альбомом "Duality". Сразу после CD-релиза барабанщик Skoota Warner покинул группу и, соответственно, не принимал участие в их гастрольном туре, прошедшем в апреле-мае 2005 года. Заменой ушедшему Скуте Уорнеру стал Andy Ryan - текущий барабанщик. В 2006 году состоялся релиз live-альбома группы Ra - "RAW", записанного на студии "Cement Shoes Records". С выпуском live-альбома Ra отправились в турне по США под названием "Congress of Corruption". Последним альбомом этой рок-группы является “Black Sun”, увидевший свет 23 сентября 2008 года. Скрыть...
Популярные аккорды Ra:
алфавиту | просмотрам | случайно
  • Intro:
    G/---------------------------
    D/---------------------------
    A/---------------------------
    E/1p0--1/4--1p0--1/4--5---7-- *repeat that a couple times
    
    Main Part:
    G/--------------------
    D/--------------------
    A/--------------------
    E/0-0---0-0-0-0-0--0-0…
  • Tuned to Drop D (D,A,D,G,B,E)
    
    Guitar 1: Intro (Play 2x), Chorus
    
    E-----------------------------------------------------------------
    B-----------------------------------------------------------------
    G-----------------------------------------------------------------
    D------232-------------232---------------232------------232-5-0---
    A----------3---0-----------3---5--------------3---0---------------
    D-----------------------------------------------------------------
    
    Guitar…
  • 1st guitar intro
    
    repeat 4x, Its tricky so you gotta listen carefully
    E--------2------3-2-----------------------------------------------------------
    B------0--0-3-3-----3---------------------------------------------------------
    G----0-----0-0-0---0-0--------------------------------------------------------
    D--2--------------------------------------------------------------------------
    A-----------------------------------------------------------------------------
    D-----------------------------------------------------------------------------
    
    2nd…
  • ------------------------------------------------------------------------------|
    -----------1-----------1------------------------------------------------------|
    -------4-----4-----4-----4-----0---4-------0---4------------------------------|
    -----2---2-------2---2-------2---2---2---2---2---2----------------------------|
    ---------------------------3-----------3--------------------------------------|
    --0------------0--------------------------------------------------------------|
    
    
    ------------------------------------------------------------------------------|
    ----------1-----------1-------------------------------------------------------|
    ------4-----4-----4-----4-----0---4-------0---4-------------------------------|
    ----2---2-------2---2-------2---2---2---2---2---2-----------------------------|
    --------------------------3-----------0---------------------------------------|
    --0-----------0---------------------------------------------------------------|
    
    
    -----------3---------5---------3---------7------------------------------------|
    ---3-5-3-5---3-5-3-5---3-5-3-5---3-5-3-5--------------------------------------|
    ------------------------------------------------------------------------------|
    ------------------------------------------------------------------------------|
    ------------------------------------------------------------------------------|
    ------------------------------------------------------------------------------|
    
    
    ----------3---------5---------3--2-3-2-3/7------------------------------------|
    --3-5-3-5---3-5-3-5---3-5-3-5-------------------------------------------------|
    ------------------------------------------------------------------------------|
    ------------------------------------------------------------------------------|
    ------------------------------------------------------------------------------|
    ------------------------------------------------------------------------------|…
  • Tuning: Drop D, but you can get away with standard for the main part.
    
    Picking part:
    E|---3-----2------------------|
    B|--0-0---0-0----3-----0h1p0--|
    G|----------------2-----------|
    D|-2-----2------2-----2-------|
    A|-------------3-----0--------|
    D|----------------------------|
    
    E|---3-----2------------------|
    B|--0-0---0-0----3-----0h1----|
    G|----------------2--------0--|
    D|-2-----2------2-----2-------|
    A|-------------3-----0--------|
    D|----------------------------|
    
    The…
Наверх