Аккорды «RadioHead»

RadioHead
Radiohead — британская рок-группа из Оксфордшира. Группа была основана в 1985 году, и её состав с того времени не менялся. Стиль Radiohead традиционно определяют как альтернативный рок, хотя на разных этапах звучание варьировалось от брит-попа до арт-рока и электронной музыки. Некоторые треки с альбомов Kid A и Amnesiac относятся к IDM, кроме того на Kid A присутствуют композиции в стиле минимал-техно, фьюжн и эмбиент, а на Amnesiac — композиции с элементами блюза и новоорлеанского джаза. Radiohead… Читать полностью... Radiohead — британская рок-группа из Оксфордшира. Группа была основана в 1985 году, и её состав с того времени не менялся. Стиль Radiohead традиционно определяют как альтернативный рок, хотя на разных этапах звучание варьировалось от брит-попа до арт-рока и электронной музыки. Некоторые треки с альбомов Kid A и Amnesiac относятся к IDM, кроме того на Kid A присутствуют композиции в стиле минимал-техно, фьюжн и эмбиент, а на Amnesiac — композиции с элементами блюза и новоорлеанского джаза. Radiohead считаются одной из наиболее популярных рок-групп 90-х, по данным на конец 2008 года, альбомы Radiohead были проданы в количестве примерно 28 миллионов копий. Журнал "Rolling Stone" в 2005 году поместил Radiohead на 73-е место в списке самых великих музыкантов в истории. Все альбомы начиная с The Bends и до In Rainbows номинировались на премию Грэмми за «Лучший альтернативный альбом» (трижды Radiohead в этой номинации победили), все альбомы получили статус золотых или платиновых в США и Великобритании и попали в составленный сайтом Music Chain список «Тысячи одного альбома, который ты просто обязан послушать!». Альбом «OK Computer» стал самым лучшим за прошедшие 25 лет, по версии одного из авторитетных журналов. Состав: Постоянные участники: Том Йорк (Thom Yorke) — вокал, гитара, пианино, клавишные Эд О'Брайен (Ed O'Brien) — гитара, бэк-вокал Колин Гринвуд (Colin Greenwood) — бас-гитара, клавишные Фил Селуэй (Phil Selway) — ударные, перкуссия Джонни Гринвуд (Jonny Greenwood) — гитара, клавишные, волны Мартено, другие инструменты Дополнительные тур-участники: Клайв Димер (Clive Deamer) – ударные, перкуссия (с 2011) Дискография: Студийные альбомы: 1993 – Pablo Honey 1995 – The Bends 1997 – OK Computer 2000 – Kid A 2001 – Amnesiac 2003 – Hail to the Thief 2007 – In Rainbows 2011 – The King of Limbs Компиляции: 2007 – Radiohead Box Set 2008 – Radiohead: The Best Of Альбомы ремиксов: 2011 – TKOL RMX 1234567 EPs: 1992 – Drill 1994 – Itch 1994 – My Iron Lung 1997 – No Surprises/Running from Demons 1998 – Airbag / How Am I Driving? 2001 – I Might Be Wrong: Live Recordings 2004 – COM LAG (2plus2isfive) Синглы: 1992 – Creep 1993 – Anyone Can Play Guitar 1993 – Pop Is Dead 1993 – Stop Whispering 1994 – My Iron Lung 1995 – High and Dry/Planet Telex 1995 – Fake Plastic Trees 1995 – Just 1996 – Street Spirit (Fade Out) 1997 – Paranoid Android 1997 – Karma Police 1998 – No Surprises 2001 – Pyramid Song 2001 – I Might Be Wrong 2001 – Knives Out 2003 – There There 2003 – Go to Sleep 2003 – 2 + 2 = 5 2008 – Jigsaw Falling into Place 2008 – Nude 2008 – Reckoner 2009 – Harry Patch (In Memory Of) 2009 – These Are My Twisted Words 2011 – Supercollider / The Butcher 2011 – The Daily Mail / Staircase Видео-альбомы: 1995 – Live at the Astoria 1998 – 7 Television Commercials 1998 – Meeting People Is Easy 2004 – The Most Gigantic Lying Mouth of All Time 2008 – In Rainbows – From the Basement 2010 – Live in Praha 2010 – Radiohead for Haiti Начало (1986—1991) Будущие участники Radiohead вместе посещали закрытую частную школу для мальчиков в городе Абингдон (Оксфордшир). Том Йорк и Колин Гринвуд были ровесниками, О'Брайен и Селуэй на год старше, Джонни Гринвуд на два года младше. В 1986 г. они создали группу On a Friday. Название было выбрано из-за того, что репетиции группы в школе проходили по пятницам. Первое выступление состоялось в оксфордском пабе "Jericho Tavern" по разным данным в конце 1986 г. или в 1987 г. Джонни Гринвуд сначала играл на клавишных, но вскоре стал гитаристом. К 1987 г. все, кроме младшего Гринвуда, закончили абингдонскую школу, однако группа продолжила периодически репетировать и выступать вместе. К 1991 г. Йорк, старший Гринвуд, О'Брайен и Селуэй закончили университет. On a Friday начали записывать демо-кассеты и постоянно давать концерты в Оксфордшире. Одна из демо-записей была самостоятельно издана как EP "Manic Hedgehog" (названа в честь местного музыкального магазина). Тогда же On a Friday впервые появились на обложке оксфордского журнала "Curfew". Группа играла музыку в духе The Pixies, The Smiths, R.E.M. и Talking Heads. В то время в моде был шугейзинг, и On a Friday не пользовались особой популярностью. Молодая группа привлекла внимание совладельца оксфордской звукозаписывающей студии "Courtyard Studios" Криса Хаффорда, который вместе со своим партнёром Брайсом Эджем стал менеджером On a Friday. Они остаются менеджерами Radiohead до настоящего момента. В конце 1991 г. Колин Гринвуд, работавший в музыкальном магазине, случайно познакомился с агентом "EMI Records" Кейтом Уозенкрофтом в результате чего On a Friday подписали с EMI контракт на шесть альбомов. По настоянию EMI музыканты поменяли название группы на Radiohead — в честь одноимённой песни "Talking Heads" с альбома "True Stories". «Pablo Honey" и "The Bends" (1992—1995) Дебютный EP Radiohead "Drill" был спродюсирован Хаффордом и Эджем, записан в "Courtyard Studios" и выпущен в марте 1992 г. "Drill" занял в чартах скромное 101-е место. Поэтому для записи дебютного альбома Radiohead пригласили Пола Колдери и Шона Слейда, которые раньше работали с Pixies и Dinosaur Jr. В конце 1992 г. группа полностью записала альбом "Pablo Honey" (вышел 22 февраля 1993 г.), в сентябре 1992 вышел сингл «Creep». Первое время «Creep» прошёл незамеченным, песня не попала в ротацию на радио BBC. "Pablo Honey" также дебютировал в чартах не слишком удачно, однако после релиза альбома популярность «Creep» резко подскочила, и сингл добрался в британских чартах до седьмого места, а видеоклип на эту песню попал в ротацию на MTV. После выхода альбома последовал продолжительный тур по США. По окончании тура группа приступила к записи нового альбома, в работе над которым участвовал один из самых известных британских продюсеров Джон Леки. В 1994 г. на свет появился EP "My Iron Lung", заглавная песня с которого вышла на сингле. Многие критики сравнивали Radiohead того периода с Nirvana, в частности отмечая сходство риффов в «My Iron Lung» и песне Nirvana «Heart-Shaped Box» c "In Utero". В конце 1994 г. группа закончила работу над вторым альбомом "The Bends" (вышел в мае 1995 г.). "The Bends" в целом оказался гораздо успешнее дебютного альбома, а песня «Street Spirit (Fade Out)» до настоящего времени остаётся визитной карточкой группы. В середине 1995 г. Radiohead отправились в турне вместе с R.E.M.; во время одного из выступлений Майкл Стайп заявил: «Radiohead так хороши, что пугают меня» (англ. Radiohead are so good, they scare me). «OK Computer" и коммерческий успех (1996—1998) Ещё до начала работы над новым альбомом Radiohead записали две новые песни: "Lucky", вошедшую в благотворительный сборник "The Help Album", записанный рядом знаменитых исполнителей для неправительственной организации "War Child", и "Exit Music (For a Film)", вошедшую в саундтрек к фильму "Ромео + Джульетта". В начале 1996 г. Radiohead вместе с продюсером Найджелом Годричем приступили к записи "OK Computer". Большая часть работы над альбомом прошла в расположенном рядом с Батом особняке актрисы Джейн Сеймур. 16 июня 1997 г. состоялся релиз "OK Computer". Альбом представлял из себя мелодичный рок с вкраплениями электронной музыки, дополненный ярким эмоциональным вокалом Йорка. "OK Computer" считается классикой рок-музыки 90-х и входит в списки «Лучших альбомов» по различным версиям. На 40-й церемонии вручения премий Грэмми "OK Computer" был признан лучшим альбомом в жанре альтернативной музыки, а также был одним из претендентов на премию в номинации «Альбом года». Песни «Paranoid Android», «Karma Police» и «No Surprises» были изданы как синглы. Наибольшего успеха достигла «Karma Police» (14-е место в чарте Billboard Modern Rock). За выходом "OK Computer" последовал мировой тур «Against Demons». Тур лёг в основу документального фильма "Meeting People Is Easy", снятого режиссёром Грантом Ли. «Kid A", "Amnesiac" и смена стиля (1999—2001) После мирового турне 1997—1998 гг. Radiohead практически прекратили концертную деятельность. Единственное публичное выступление состоялось на концерте в Париже, организованном Международной амнистией в 1998 г. Кроме того Йорк и Джонни Гринвуд выступили на концерте в поддержку освобождения Тибета в Амстердаме, на котором была исполнена новая песня «Pyramid Song». Позднее Йорк говорил, что в тот момент группа была близка к распаду, а он сам страдал от творческого кризиса и депрессии. В начале 1999 г. началась работа над новым альбомом. Записи проходили в Париже, Копенгагене, Глостере и новой студии в Оксфорде, продюсером снова выступил Найджел Годрич. К апрелю 2000 г. был готов "Kid A", а также материал, позднее изданный на "Amnesiac". "Kid A" вышел в октябре 2000 г. На нём Radiohead в очередной раз много экспериментировали со звучанием, и в результате получился самый «электронный» на тот момент альбом группы. При записи в большом количестве использовались программирование, волны Мартено и разные нехарактерные для рок-музыки инструменты. Критики находили в "Kid A" влияние краутрока и джаза. Альбом дебютировал на первом месте в чартах многих стран и стал первым альбомом группы, попавшим на вершину Billboard 200. Лейбл "Capitol Records" до официального релиза выпустил альбом в Интернет для ознакомительного прослушивания, откуда он незапланированно попал в различные файлообменные сети, в том числе в "Napster", где распространялся бесплатно. Radiohead не стали выпускать синглов в поддержку "Kid A", однако песни «Optimistic» и «Idioteque» попали в ротацию на радио, а серия специально снятых коротких видеороликов демонстрировалась на музыкальных каналах в Интернете. Коммерческий успех экспериментального "Kid A", песни с которого не выходили на синглах, не выпускались как видеоклипы и звучали на радио в очень ограниченном количестве, казался ещё более неожиданным из-за преждевременной утечки в "Napster". В статье «Napster вывел новый альбом Radiohead на первое место?» (англ. Did Napster Take Radiohead’s New Album to Number 1?) журналист Ричард Мента предположил, что именно массовое распространение "Kid A" через Интернет, которое по всей логике должно было привести к снижению продаж, сыграло решающую роль в коммерческом успехе, став своеобразной заменой традиционным способам «раскрутки» альбома: скачав альбом бесплатно, фанаты захотели приобрести его в магазинах. В 2001 г. "Kid A", как и предыдущий "OK Computer", получил номинацию на Грэмми как «Лучший альбом года» и победил в номинации «Лучший альтернативный альбом». Несмотря на это, некоторые критики крайне негативно восприняли смену звучания, назвав альбом «коммерческой предсмертной запиской» (англ. commercial suicide note). Сам Йорк отрицал, что Radiohead стали экспериментировать со звучанием, чтобы их считали «элитарной» группой: "Мы не пытаемся быть тяжёлыми для понимания... На самом деле мы пытаемся общаться [со слушателями], но в какой-то момент мы по всей видимости начинаем отталкивать слишком многих... Мы не делаем ничего радикального".Во время промо-тура в поддержку "Kid A" участники группы находились под впечатлением от книги "No Logo" канадской журналистки и активистки антиглобалистского движения Наоми Клейн. Во время турне Radiohead свели к минимуму рекламную кампанию и выступали на небольших площадках. В июне 2001 г. вышел следующий альбом, "Amnesiac", записанный одновременно с "Kid A" в схожем стиле. "Amnesiac" также добился коммерческого успеха, дебютировал на первом месте в британском чарте и на втором месте в Billboard 200, был номинирован на Грэмми и Mercury Prize. В начале июля Radiohead организовали фестиваль в Южном Парке Оксфорда, на котором группа выступила перед 40. 000 зрителей вместе с Supergrass, Sigur Rós и Beck. На этом концерте Radiohead впервые за несколько лет исполнили песню «Creep», которая долго не исполнялась вживую, предположительно из-за того, что эту песню Том Йорк считал «попсовой» и нехарактерной для звучания Radiohead. В поддержку "Amnesiac" впервые с 1998 г. («No Surprises») были выпущены синглы «Pyramid Song» и «Knives Out». Песню «I Might Be Wrong» также планировалось выпустить на сингле, однако вместо сингла в ноябре того же года группа выпустила концертный мини-альбом "I Might Be Wrong: Live Recordings", включавший восемь песен, записанных во время мирового турне. 11 июля 2001 года вышел эпизод сериала «Южный парк» «Скотт Тенорман должен умереть», в озвучании которого самих себя приняли участие все члены Radiohead. «Hail to the Thief" и перерыв (2002—2004) Шестой альбом "Hail to the Thief" записывался с сентября 2002 г. по февраль 2003 г. снова вместе с Найджелом Годричем, хотя некоторые новые песни Radiohead исполняли во время летнего турне по Португалии и Испании. Вышедший в июне 2003 г. альбом в целом был встречен критикой положительно, хотя некоторые обозреватели отмечали, что на "Hail to the Thief" Radiohead впервые за долгое время не предложили слушателям ничего нового. Однако это не помешало альбому дебютировать на третьем месте в Billboard 200, получить платиновый статус в Великобритании и номинацию на Грэмми за «Лучший альтернативный альбом». Песня «There There» заняла четвёртое место в британском чарте и номинировалась на Грэмми как «Лучшее вокальное рок исполнение дуэтом или группой». Radiohead обвиняли в том, что название "Hail to the Thief" (англ. Да здравствует вор) намекало на скандальные президентские выборы в США 2000 г., результат которых был определён после пересчёта голосов. Сам Йорк отвергал обвинения в политизированности альбома и заявлял, что эту фразу он услышал в радиопрограмме на Радио 4, посвящённой Джону Куинси Адамсу (Адамса избрала президентом Палата представителей после того, как он проиграл прямые выборы), и она ему очень понравилась. Последовало мировое турне, в ходе которого Radiohead выступили в качестве хедлайнеров на фестивале в Гластонбери. После тура группа ушла в творческий отпуск. Radiohead выпустили шесть альбомов, которые были предусмотрены контрактом с "Capitol Records", и большую часть 2004 г. музыканты отдыхали или работали над сольными проектами. «In Rainbows" (2005—2009) Radiohead начали работу над седьмым альбомом в феврале 2005 г. В сентябре была записана песня «I Want None of This» для благотворительного сборника "Help: A Day in the Life". Альбом продавался через Интернет, и песня Radiohead была наиболее часто скачиваемым треком. На сингле трек не выходил. На тот момент Radiohead не имели контракта с каким-либо лейблом. Незадолго до начала работы над альбомом Йорк сказал в интервью Time: "Мне нравятся люди в нашей звукозаписывающей компании, но наступает время, когда ты спрашиваешь себя, зачем она нам нужна. И ещё нам, наверное, доставит кое-какое извращённое удовольствие сказать «Да пошли вы!» этой загнивающей модели ведения бизнеса». В течение тура, проходившего в 2006 г., Radiohead отыграли на различных концертах в Европе и Северной Америке 13 новых песен. В конце года они вернулись в Англию и вместе с Годричем начали записывать альбом. 10 октября 2007 г. альбом "In Rainbows" был выложен в Интернете в формате MP3, причём покупатели сами определяли цену, за которую они скачивали альбом. Поступок Radiohead некоторые обозреватели назвали «революцией в музыкальной индустрии». При этом существуют противоречивые данные о доходах от интернет-распространения "In Rainbows". По словам менеджера Radiohead Брайса Эджа, средняя цена за скачивание составила 4 фунта, в то же время по данным "Reuters", шестеро из десяти скачавших альбом не заплатили ничего, а остальные заплатили в среднем по 2,9 фунта. Сам Йорк говорил, что доход от скачивания "In Rainbows" превзошел доход от скачивания всех предыдущих альбомов Radiohead вместе взятых. В октябре 2008 года компания "Warner Chappell", которая осуществляла мониторинг скачивания "In Rainbows", объявила, что виртуальная версия альбома принесла больше доходов, чем продажи "Hail to the Thief", а официально распространявшийся бокс-сет (альбом плюс бонус-диск) был продан в количестве 100.000 копий. В конце года "In Rainbows" был издан на "XL Recordings" в Великобритании, а в январе — на "TBD Records" в США. По обе стороны Атлантики "In Rainbows" возглавил национальные хит-парады (интернет-версия не попала в чарты, поскольку в чартах учитываются только продажи дисков), в том числе дебютировал на первом месте в британском чарте и неделю спустя возглавил Billboard 200 14 января 2008 года состоялся релиз первого сингла «Jigsaw Falling into Place». Второй сингл «Nude» вышел 31 марта. 2 июня Radiohead издали сборник лучших песен "Radiohead: The Best Of", на который вошли песни с альбомов, записанных до "In Rainbows". Это связано с тем, что сборник вышел на лейбле "Parlophone Records", и поэтому включает только песни с альбомов, вышедших на этом лейбле. На вторую половину года намечен мировой тур. В новогоднюю ночь 31 декабря 2007 года состоялась онлайн-презентация "In Rainbows". Radiohead исполнили песни с нового альбома в ходе концерта, получившего название "Scotch Mist", который одновременно транслировался на сайте radiohead.tv и кабельном телеканале Current TV. 22 мая 2008 года группа стала лауреатом престижной музыкальной премии "Ivor Novello-2008" в номинации «Лучший альбом года» за альбом «In Rainbows». «The King of Limbs" (2009—2011) 14 февраля 2011 года группа анонсировала выпуск своего восьмого студийного альбома "The King of Limbs". Музыканты отказались от схемы свободной оплаты, опробованной с "In Rainbows". С 19 февраля 2011 года альбом можно купить в электронном формате, а с 9 мая — на физическом носителе (двух виниловых пластинках и компакт-диске). В "UK Albums Chart" альбом дебютировал на седьмом месте с 33.469 проданными копиями за первую неделю. Альбом был неоднозначно воспринят критиками. Рецензент BBC Майк Дайвер назвал его «ещё одним великолепным альбомом самой неизменно великой британской группы» и сравнил его музыку с классическими медленными песнями Radiohead («Street Spirit (Fade Out)» и «Motion Picture Soundtrack»). Дмитрий Николаев (Rolling Stone) отметил, что альбом поражает «своей радикальной, почти чудовищной неамбициозностью» и больше всего похож на сборник би-сайдов. Культурное влияние Альбомы Radiohead середины 90-х ("The Bends" и "OK Computer") сильно повлияли на британскую рок-музыку рубежа тысячелетий. В то время как некоторые критики относят Radiohead этого периода к бритпопу и считают "OK Computer" одним из наиболее ярких альбомов жанра, большинство сходится на том, что Radiohead вместе с некоторыми другими группами (в первую очередь, The Verve) стали новыми законодателями мод и способствовали упадку бритпопа. В то время как эти альбомы ("OK Computer" и альбом The Verve "Urban Hymns") были бритпопом в том смысле, что они были британскими и популярными, они не были сознательным бритпопом и избежали негативных ассоциаций, которые приклеились к этому термину до сегодняшнего дня. Сходство с Radiohead находили в музыке Coldplay, Travis, Starsailor и других современных британских рок-групп. Однако к тому моменту, как эта волна набрала популярность, стиль самих Radiohead сильно изменился: на "Kid A" и "Amnesiac" Radiohead экспериментировали с различными жанрами в диапазоне от электронной музыки до джаза. Когда в одном из интервью музыкантам был задан вопрос: «Что вы думаете по поводу того, что группы вроде Travis, Coldplay и Muse добиваются успеха с точно таким же звучанием, как у ваших записей 1997 года?», Том Йорк ответил: «Удачи с Kid A!». О влиянии поздних альбомов Radiohead говорили Bloc Party. Кроме этого, Radiohead уже оказали огромное влияние на музыкальную индустрию. В 2001 г. альбом "Kid A" стал коммерчески успешным, несмотря на отсутствие синглов, минимальную рекламную кампанию и утечку альбома в "Napster". В 2007 г. альбом "In Rainbows" был выложен в сеть для свободного скачивания и вышел на диске только через несколько месяцев. Журнал "Time" назвал "In Rainbows" «возможно, самым важным релизом в современной истории музыкальной индустрии» (англ. easily the most important release in the recent history of the music business) и предрёк, что успешные и самостоятельные исполнители, которым не нужна раскрутка своих альбомов, в ближайшем будущем откажутся от услуг лейблов. По мнению обозревателя газеты "The Daily Telegraph" Шейна Ричмонда, лейблы звукозаписи к настоящему моменту уже стали лишним барьером между музыкантами и фанатами, поскольку интернет давно уже сделал возможным распространение музыки в обход лейблов. При этом Radiohead не стали первыми исполнителями, начавшими распространять музыку через свой сайт. Значение этого поступка состоит в том, что от услуг лейбла отказалась одна из самых значительных групп современности. Спустя несколько дней после заявления Radiohead о размещении "In Rainbows" в свободном доступе об аналогичных планах объявили Oasis, Jamiroquai, Мадонна и Трент Резнор. Скрыть...
Популярные аккорды RadioHead:
алфавиту | просмотрам | случайно
  • Gmaj      Gsus4
    When you were here before
           B       Bsus4
    Couldn't look you in the eyes
           C       Csus4
    You look like an angel
          Cm       Csus4
    Your skin makes me cry
    
         Gmaj      Gsus4
    You float like a…
  • key: Am
    time signature: 4/4
    
    the chords entitled Em* and E* are chords which i am not exactly sure what they're 
    so i thought it'd be easier just to name them Em* and E*
    
    chords:
      Am   Asus4   Asus2   Em    Em7…
  • Dm
    A heart that's full up like a landfill
                      A#
    A job that slowly kills you
    C
    Bruises that won't heal
    
    You look so tired and happy
    Bring down the government
    They don't
    They don't speak for us
    
    I'll take a…
  • Музыкальный ряд:
    ----------------
    
    E|--------------10--8---8------13----12--12--12----------10-|
    B|------------------11--11--10-----------11--------13----10-|
    G|------12--10--10-----------------------12--------12-------|
    D|------12--------------10----------------------------------|
    A|--13------12--------------------10-----10-----------10----|
    E|------------------10------13------------------13----------|…
  • Intro and Verse:
    
       Am   Am/F# Em    G   Am  F   Em    G   Am  D  G  C C/B Am  Bm  D
    e--0----0----0-----3---0-------0-----3---0---2--3------------2---2-------
    B--1----1----0-----0---1---1---0-----0---1---3--3--1--1--1---3---3-------
    G--2----2----0-----0---2---2---0-----0---2---2--0--0--0--2---4---2-------
    D--2----0----2-----0---2---3---2-----0---2---0--0--2--0--2---4---0-------
    A--0---------2-----2---0---3---2-----2---0------2--3--2--0---2-----------
    E-------2----0---2-3-----------0---2-3----------3------------------------
    
    
    
    Am…
  • Fig A
    
    Repeat x 7
    
    e|----------------------------------------------------5-|
    B|------------------6---6---6---6-----6-----------5---5-|
    G|----6-------6-----7---7---7---7-----7-----7-6--(6)----|
    D|----7-------7-----7---7---7---7-----7-----7-7---------|
    A|----7---------7-5---5---5-----------------------------|
    E|--5---(5)-5-----------------6---6-6---6-5-----5---5---|
    
    Fig…
  • Am7                Cmaj7
    limb by limb and tooth by tooth
    Gmaj7/B           Dsus2  Csus2 G/B
    stirring up inside of me
    Am7      Cmaj7      Gmaj7/B    Dsus2
    everyday every hour wish that I
                    |Am7|Cmaj7|Bmaddb6(or…
  • VERSE 1:
    
    Em        Am
    I'm on a roll,
    G         Bm        Em
    I'm on a roll this time.
    C  G       Bm          Em
    I feel my luck could change.
    
    Kill me, Sarah,
    Kill me again with love.
    This gonna be a glorious day.
    
    CHORUS:…
  • Вступление:
    
    Am      Asus2 Asus4     (X2)   потом   Am
    
    
    Куплет 1
    Am               E          C/G             Dadd9/F#
    wake from your sleep,   the drying of your tears,
    Am             E        Asus4   A
    today…
  • Cm      Cm/H   F   Gm     Gm/A  Gm/E    Gm Gm/A     Gm/E
    Please could you stop that noise I’m trying to get some rest
    Cm      Cm/H   F   Gm     Gm/A  Gm/E    Gm Gm/A     Gm/E
    From all the unborn chicken voices in my head
    Gm…
  • 1. -играем в первый раз
    2. -во второй
    3. -соотвественно в третий
    
    Куплет:
                                         x2
    E|-6---4---4---2---2-------0---4------|-----0-------------|
    B|-7---4---5---2---3---0---2-2-5------|-0---2---5-------5-|
    G|-8-8-5-5-6-6-3---4-4-1---2-2-6-6----|-1-1-2-2---6-----6-|
    D|-8-8-6-6-6-6-4-4-4-4-2-2-2-2-6-6----|-2-2-2-2-----6---6-|
    A|-6---6-6-4---4---2---2-2-0---4-4----|-2-2-0---------4-4-|
    E|-----4-------2-------0--------------|-0---------------4-|…
  • Chords:
    
    G       [320033]    
    G/f#    [2x0033]
    Cadd9   [x32033]
    D/F#    [2x0232]
    Am      [x02210]
    G/B     [x20033]
    Cadd9   [x32033]
    D       [xx0232]
    Cm      [x35543]
    
    Intro: 4 measures of G
    
    G…
  • Strumming pattern:
     
    e---------------------- (only strum for the D chord)
    B----------x-----------
    G----------x-----------
    D---x-x----x-----------
    A---x-x----x----------- (for the D chord, don't play this string...)
    E--don't…
  • Вступление- D  Dsus4  Em7    Cadd9   G/B   A7sus4
           D  Dsus4  Em7    Cadd9   G/B   A7sus4    можно повторить
    
    G                Csus2/9              G/B                Dadd4/F#
    I get home from work and you´re…
  • Fm      Eb     Db7M      C5
    
    Sweet-faced ones with nothing left inside
    That we all can love, that we all can love, that we all can
    Sweet-faced ones with nothing left inside
    That we all can love, that we all can love,…
  • C* - тот же С, только без второй струны на первом ладу
    
    Intro: C C* Am G#
    
     C              C* Am
    I'll drown my beliefs
                      G#
    To have you be in peace
    I'll dress like you
    To wash your swollen feet
    
     C Em…
  • intro:
    G - C - Bm6 - C7M  
    G - Csus2 - Bm6 - C7M  
    
    
    verse:
    G                      C
    red        wine    and sleeping pills
    
    Bm                        C
    help  me get back to your arms
    
    G          Gsus4       C
    cheap…
  • Jonnys Guitar
    Tuning: EBGDGE
    
    Ed/Thom Guitar
    Tuning: EBGDAE
    
    Intro (Ed) w/ Ebow/ Sustain Delay
    
    Whenever you hear a droning noise in the background, it's Ed playing around with this
    while adjusting the volume on…
  • G
     
    Em
    In the deepest ocean
    F#m
    The bottom of the sea
    A
    Your eyes
    G
    They turn me
    Em
    Why should I stay here?
    F#m
    Why should I stay?
    A 
    G
    
    Em
    I'd be crazy not to follow
    F#m
    Follow where you lead
    A
    Your…
  • E|------1-----------1-----------1-----------1-----|
    B|----3---3-------3---3-------3---3-------3---3---|
    G|--2-------2---2-------2---0-------0---0-------0-|
    D|0-----------------------------------------------|
    A|------------3-----------2-----------------------|
    E|------------------------------------3-----------|
    
    E|------0-----------0-----------0-----------0-----|
    B|----1---1-------1---1-------1---1-------1---1---|
    G|--0-------0---0-------0---2-------2---2-------0-|
    D|------------------------------------------------|
    A|3-----------2-----------0-----------0-----------|
    E|------------------------------------------------|
    
    E|------0-----------3-----------0-----------0-----|
    B|----1---1-------3---3-------0---0-------1---1---|
    G|--2-------2---0-------0---1-------1---2-------2-|
    D|------------------------------------------------|
    A|-----------------(2)----------------0-----------|
    E|1-----------3-----------4-----------------------|
    
    E|------3-----------3-----------3-----------3-------|
    B|----1---1-------3---3-------1---1-------1---1-----|
    G|--0-------0---0-------0---0-------0---0-------0---|
    D|--------------------------------------------------|
    A|3----------------(2)----3-----------3-----------3-|
    E|------------3-------------------------------------|
    
    I…
  • Chords
    
    A(x02220)
    C#m (x46654)
    E (x7999x)
    
    (intro)
    A C#m E A C#m E
    
    A               C#m 
    when i'm at the pearly gates
    E                  A 
    this will be on my videotape
       E           A 
    my videotape…
  • Guitar Tuning: Drop A
    
    Intro
    e|--------------------------|
    B|--------------------------|
    G|--------------------------|
    D|--------------/0-----5----|
    A|--------------/0-------5--|
    A|--10--12--10--/0----------|  x20
    
    e|--------------------------------------|
    B|--------------------------------------|
    G|--------------------------------------|
    D|--7--7--7-----------7--7--7-----------|
    A|-----------5--7--x-----------5--7--x--|
    A|--------------------------------------|…
  • Intro: (with chorus effect)
    e|------0-------0------0-------0------0------0------0------0-|
    B|----0------15------0------15------0------0------0------0---|
    G|-13-----13------13-----13------16-----16-----14-----14-----|   repeat…
  • Acordes/Chords: 
    (E A D G B E)
    
     Cm x35543
     A# 68876x
    G#m 46654x
     G* 32233x
    F/D 10003x
     Em 022000
     Am x02210
     Dm xx0231
      G 320033
    
    Intro:
    Cm - A#	- G#m - G* - F/D - Em
    
      Cm      A#   G#m
    I want you to…
  • INTRO:
    
    Drums for 2 bars then...
    
        1   +   2   +   3   +   4   +   1   +   2   +   3   +   4   +
    e -------------------------------------------------------------------
    B ------7---------------5---------------3---------------2------------
    G…
  • intro/verse/chorus:
    D
    
    bridge:
    D - C7/D
    
    and that's it for the chords
    techniclly this is bass not guitar but there us no other guitar in the song
    
    whole song(Drop-D tunning):
    G-----------------------------------------|
    D-----------------------------------------|
    A-----------------------------------------|
    D-4-0-0-0-4-0-0-0---0-3-0-0-0-2-0-0-0---0-|
    
    chords(Can…
  • e-----------------------------------------------------10-11---13-14---16-17--\-
    B------------------------------------------------------------------------------
    G--x-x-x-x----5--5--7--8---10-11---13--14----16--17---7--8----10-11---13-14--\-
    D--x-x-x-x-x2------------------------------------------------------------------
    A--x-x-x-x----3--3--5--6---8--9----11--12----14--15----------------------------
    E------------------------------------------------------------------------------
    
    Verse…
  • Verse and Chorus
    
            Em7         G             Em7                          A                           A
    
    E--------2----------3--------------2-------x---------x---------0---------x---------x-------0------|
    B--------0----------0--------------0-------1----s/---3---------2---------1---s/----3-------2------|
    G--------0----------0--------------0-------0----s/---0---------2---------0---s/----0-------2------|
    D--------2----------x--------------2-------2----s/---4---------2---------2---s/----4-------2------|
    A--------2----------x--------------2-------x---------x---------0---------x---------x-------0------|
    E--------0----------3--------------0-------x---------x---------x---------x---------x-------x------|
    
    
    (Loud…
  • Intro     Am     Am/Ab   Am7  (the Am7 is played quickly)  (x2)
    
    
    Verse 1
    Am        Am/Ab               Am7    Am        Am/Ab
    Once again, she is smashing up her house again,
                     Am7                Gm6…
  • Main Bits
    
    G|-------------------------|------------------7----|
    D|--------------------9-10-|------------7-5----7-9-|
    A|-10-7-9-5-7-3-5-2-3------|-10-7-9-5-7-----7------|
    E|-------------------------|-----------------------|
    
    Other…
  • intro:
    Am/D          Bm/D     Dadd9
    ooh
    
    Bb6/D         C/D      D6/9
    ooh
    
    Am/D          Bm/D     Dadd9
    ooh
    
    Bb6/D         C/D      D6/9
    ooh
    
    Bb6/D         C/D      D6/9
    ooh
    
    Dm        C/D*      Em/D…
  • G5
    3 x 0 0 3 3
     Bb6
    6 x 0 0 6 6
     Bb6/A
    5 x 0 0 6 6
     Cadd9
    8 x 0 0 8 8
     
    Cadd9/B
    7 x 0 0 8 8
     G7
    3 x 0 0 3 1
     Ebmaj9
    x 6 0 0 6 6
     F6sus2
    x 8 0 0 8 8
     
    Bbadd9
    x x x 7 6 8
     Cadd9(type 2)
    x x x 9 8 10…
  • [Intro by Kasper van Benten]
    
    C-B-Bb-A (x2)
    
     A                           D
    they love me like i was a brother
                            E
    they protect me, listen to me
          A                 D
    they dug me my very…
  • Dm                   C                Bbmaj7            Am
    -----------1---------1---------0------------------------------------
    --------3---------3-------------------------3---------3---------1---
    -----2----------------------0------------2--------------------------
    --0------------0----------------------3------------3---------2------
    -------------------------3---------1------------1---------0---------
    --------------------------------------------------------------------…
  • intro:
    Am - A7M  
    Am - A7M  
    Am - A7M  
    Gsus2 - D
    Gsus2 - D
    
    verse:
    Am                A7M               Am               A7M  
    morning      bell               the morning     bell
    
    Am                A7M…
  • Tuning: drop C (C A D G B E)
    
    Riff 1 intro X 4
    -----------------------|
    ------3-----3-----3----|
    ----2-----2-----2------|
    -----------------------|
    -----------------------|
    --5-----2-----0--------|
    
    
    I will sneak…
  • Chords over verse: A   E   F#m  E
    
    PART A -  (intro/1st part of verses):
    E----------5----------0---------4----------0----   (repeat)
    B---3----3-----3----3-----3---3-----3---3-------
    G-6----6-----6 ---6-----6---6-----6---6---------
    D-----------------------------------------------
    A-----------------------------------------------
    E-----------------------------------------------
    
    PART…
  • Intro:
    e------------------------------------------------------------------------
    B------------------------------------------------------------------------
    G------------------------------------------------------------------------
    D------------------------------------------------------------------------
    A--------2---------------------------------------------------------------
    E--7--3--0--3------------------------------------------------------------
    
    Verse:…
  • F
    I dont wanna be your friend
    Bb                   F
    I just wanna be your lover
    F
    No matter how it ends
    Bb                F
    No matter how it starts
    
    
    F
    Forget about your house of cards and
    Bb       F
    I'll do…
  • Riff 1
    e-----------------------------------------------------------------------7-
    B-----------------------------------------------------------------------5-
    G-----------------------------------------------------------------------6-
    D-----------------------------------------------------------------------7-
    A-------------------------------------------------------------------------
    E--0--1--8--7--9--5--0--1--8--7--5--9--12--13--8--7--9--5--0--1--8--7-----
    
    Riff2
    e-------------------------------------------------------------------------
    B-------------------------------------------------------------------------
    G-------------------------------------------------------------------------
    D--14-12-11-12-11-11------------------------------------------------------
    A-------------------------------------------------------------------------
    E-------------------------------------------------------------------------
    
    Verse
    e--0---0---0---0--0---0--0---0--0---0--0----------------------------------
    B--0---0---0---0--0---0--0---0--0---0--0----------------------------------
    G--6---8---7---6--7---6--6---7--6---7--6----------------------------------
    D--7---7---6---6--6---6--6---6--6---6--6----------------------------------…
  • e|---x---x--x--xxxxxxxx--0-x--x--xxxxxxxx------|
    B|---x---x--x--xxxxxxxx--0-x--x--xxxxxxxx------|
    G|---x---x--x--xxxxxxxx--0-x--x--xxxxxxxx------|   X10
    D|---5---x--4--44444444--7-x--5--55555555------|
    A|---x---x--x--xxxxxxxx--x-x--x--xxxxxxxx------|
    E|---7---x--7--77777777--7-x--7--77777777------|
    
    
    |---x---x--x--xxxxxxxx--0-x--x--xxxxxxxx------|
    |---8---x--7--77777777--0-x--x--xxxxxxxx------|
    |---x---x--x--xxxxxxxx--0-x--x--xxxxxxxx------|…
  • ----------------------------------------------------------------|
    -----3-----------3-----------3-----1-----------3----------------|
    --------0--0--------0-----------0--0--------------0-------------|
    --------------4--------0--2--------2--------4--------4--0-5-4-0-|(???)
    -----------------------------------3----------------------------|
    --3(bass)-------------------------------------------------------|
    
    ----------------------------------------------------------------|
    -----3-----------3-----------3-----1----------------------------|
    --0-----0--0--------0-----------0--0----------------------------|
    --------------4--------0--2--------2----------------------------|
    -----------------------------------3----------------------------|
    ----------------------------------------------------------------|
    
    
    1.
    ----------------------------------------------------------------|
    -----3-----------3-----------3-----1----------------------------|
    --0-----0--0--------0-----------0--0----------------------------|
    --------------4--------0--2--------2----------------------2--0--|
    -----------------------------------3----------------------------|
    ----------------------------------------------------------------|…
  • INTRO:
    
    E(xx210x) - A(xx222x) - X1(xx243x) - Am(xx221x)
    E(xx210x) - A(xx222x) - X1(xx243x) - Am(xx221x)
    E(xx210x) - A(xx222x) - X1(xx243x) - Am(xx221x)
    E(xx210x) - A(xx222x) - X1(xx243x) - Am(xx221x)
    
    
    
    1. VERSE:
    
    Bsus4(799977)…
  • Capo on 2nd Fret
    
    Every time you do a chord you do it for 2 bars and during each bar do a
    variation of that chord.
    
    
    C-   (C  Cadd9  C Cadd9)
    Em-   (Em  Em/B  Em  Em/B)
    G-    (G  Gsus4  G  Gsus4)
    D-    (D  Dsus4…
  • intro:
    N.C.
    
    D-|madd4 - Amadd4 - Em7 - G - F7M  
    D-|madd4 - Amadd4 - Em7 - G - F7M  
    D-|madd4 - Amadd4 - Em7 - G - F7M  
    D-|madd4 - Amadd4 - Em7 - G - F7M  
    D-|madd4 - Amadd4 - Em7 - G - F7M  
    D-|madd4 - Amadd4 -…
  • intro:
    Gm6 - Ebmaj9
    Gm - Eb7M  
    Gm6 - Ebmaj9
    Gm - Eb7M  
    Gm6 - Ebmaj9
    Gm - Eb7M  
    
    *12 bars solo drums*
    
    verse:
    Gm6                Ebmaj9              Gm
    who's in a bunker? who's in a bunker?…
  • Capo on 3rd Fret.
    
    Chords: (relative to 3rd fret)
    Name EADGBE
    -----------
    Am   002210
    Em   022000
    Dm   x03231
    G    32003x
    C    x32010
    F    x33211
    
    Add a bass riff to Am w/pinky (on bottom A and E strings):
    e…
  • Abm = 466444
    C#m = 446654
    B   = 224442
    F#  = 244322
    
    
    (intro)
    Abm C#m (4x)
    
    (couplet1)
    C#m              F#
    I'm waking up so fast 
       B                  Abm
    To see myself staring back at me 
       C#m…
  • EADGBe
      CHORDS:     G5   355xxx
                  G#5  466xxx
                  A5   577xxx
                  F#5  244xxx
                  C    x3555x
    
      Where x's appear as chord names in tab, strum muted strings with 
    reckless…
  • Gtr I (D A D G B E): Drop D tuning.
    
    |---------------------------------------------------------|
    |---------------------------------------------------------|
    |---------------------------------------------------------|
    |---------------------10h12----------------------10h12----|
    |-9-10-12-------10h12--------9-10-15-------10h12----------|
    |-0--0--0-10h12--------0-----0--0--0-10h12----------------|
    
    |---------------------------------------------------------|
    |---------------------------------------------------------|
    |---------------------------------------------------------|
    |---------------------10h12----------------------10h12----|
    |-9-10-14-------10h12--------9-10-12-------10h12----------|
    |-0--0--0-10h12--------0-----0--0--0-10h12----------------|…
  • I reckon:
    
    
    C   G   D   Am    Em    C
    
    
    G   D   Am    Em    C
    Reckoner
    G   D   Am    Em    C
    Can you take it with you
    G   D   Am    Em    C
    Disavow the pleasure
    
    
    G   D   Am    Em    C
    You are not to blame…
  • G(type1)   D(type1)
    Soul       destroyed
         G(type1)  D(type1)
    With clever      toys
         G(type1)  D(type1) G(type1)        A(type1)
    For  little                               boys
         G(type1)  D(type1)  G(type1)…
  • Intro riff: (1st string tab)
    10(7x)-12-12-10-12-10-8-10-8-7-8-7-5-7-5(16x)/
    10(7x)-12-12-10-12-10-8-10-8-7-8-7-5-7-5(5x)-7-7-8(8 or 9x)
                                                     => at 6th, start…
  • Tuning: Standard.
    
    Chords:
                    EADGBe
    Bm      ===     225542
    Bm7     ===     225242
    G       ===     320003
    G6/E    ===     020003
    D/F#    ===     200232
    Em      ===     022000
    A9      ===     X02000
    D7M/F#…
  • |-----------------------------|
    |-----------------------------|
    |-----10-----10-----10-----10-|
    |--10-------------------------|
    |-----------------------------|
    |-----------------------------| x3
    
    and then
    
    |-----------------------------------|
    |-----------------------------------|
    |--13-12----13-12----12---------10--|
    |--11-11----11-11----10---------10--|
    |-----------------------------------|
    |-----------------------------------|…
  • Intro (Play 4 times)
    
    E|----------------------------------------------
    B|----------------------------------------------
    G|----------------------------------------------          
    D|----------------------------------------------…
  • KEY:
    P - pull off
    
    CHORDS USED:
    Am    - A C E
    Amaj7 - A C# E G#
    G     - G B D
    D     - D F# A
    Em    - E G B
    Emaj7 - E G# B D#
    A     - A C# E
    
    
    INTRO:
    Drums - 4 bars
    
    Am	Amaj7		Am	Amaj7
    Am	Amaj7
    G	D		G	D
    
    
    VERSE:
    Am	Amaj7		Am	Amaj7
    Am	Amaj7
    G	D		G	D
    
    
    rpt.…
  • riff 1
    
    E-----------------------------------------------|
    B-----------------------------------------------|
    G-----------------------------------------------|
    D-----------------------------------------------|
    A---11---9-----11--9------11-9-9-9--------------|
    E----0---0--0--0---0--0----0-0-0-0--------------|
    
    E--------------------------------------------------|
    B--------------------------------------------------|
    G--------------------------------------------------|
    D--------------------------------------------------|
    A---12---11----12--11-----12-11-11-11--------------|
    E----0---0--0--0---0--0----0-0--0--0---------------|
    
    E-----------------------------------0-------------|
    B-----------------------------------0-------------|
    G-----------------------------------9-------------|strum…
  • Intro: A, C#, D, E, F#, C#, D
           A, C#, D, E,
    
          C#   D		   A    C# D   E  F#
    Was always waiting for the crash,
            C# D			     A     C# D   E  F#
    The car to drive right through the shops,
            C# D…
  • D (xx0232)
    Dmaj9 (xx0220)
    C (x32010)
    G (320033)
    Dsus4 (xx0233)
    E (022100)
    E? (022440)
    A (x02220)
    Esus4 (022200)
    
    
    Intro:   D    Dmaj9    D    Dmaj9    C    G    D    Dmaj9
    
     
                                 D…
  • e|---0---------|
    B|-----3-------|
    G|-------2-----|    x4
    D|---------4---|
    A|-------------|
    E|-------------|
    
    
    e|---0---------|
    B|-----3-------|
    G|-------4-----|   x4
    D|---------5---|
    A|-------------|
    E|-------------|…
  • intro:
    C - Dbmaj13 - Cm/Eb play that 6 times
    
    chorus
    C - Dbmaj13
    
    Cm/Eb            F    C      Dbmaj13       Cm/Eb
         everything                                       everything
    
    F    C        Dbmaj13      Cm/Eb…
  • Chords:
    ~~~~~~~
    for you vertical people...
    		E  A  D  G  B  E
    
    G#m		4  6  6  4  4  4
    G#		4  6  6  5  4  4
    A		5  7  7  6  5  5
    E		0  2  2  1  0  0
    C#m		9  11 11 9  9  9
    C#m add6	9  11 11 9  10 9 and 4  0  6  6…
  • Intro:
    e--------------7-----6--------6--5-----------4--------4--4--4---|
    B--0--------------9-----8-----------7-----7--5--------5--4--3---|
    G--1-----------------------9-----------8------------------------|
    D--2------------------------------------------------------------|
    A--2------------------------------------------------------------|
    E--0------------------------------------------------------------|
    
    Chorus:…
  • Tuning: regular 
    
    Here are the three basic chords used in this song.  The base (E and A string) 
    changes are what really carry the tune so bang them out.
    
    e|-------------------------------------------------------------|
    B|-------------------------------------------------------------|
    G|-------------------------------------------------------------|
    D|--5--5--5--5--5----------------------------------------------|
    A|--5--5--5--3--3----------------------------------------------|
    E|--3--3--3--3--3----------------------------------------------|
    
    e|--2----------------------------------------------------------|
    B|--3----------------------------------------------------------|
    G|--2----------------------------------------------------------|
    D|-------------------------------------------------------------|
    A|-------------------------------------------------------------|
    E|--2----------------------------------------------------------|
    
    e|--0----------------------------------------------------------|
    B|--0----------------------------------------------------------|
    G|--0----------------------------------------------------------|
    D|--2----------------------------------------------------------|
    A|--2----------------------------------------------------------|
    E|--0----------------------------------------------------------|
    
    
    ************************************
    
    |…
  • B                                               F#m
                                               ********                                     
    E---|-----0-----------0-----------0-----------------|-----2-----------2---------
    B---|--------4-----------4-----------4-----5--4-----|-----------2---------------
    G---|--4--------4-----------4-----------4--6--4--4--|--2-----2-----------2------
    D---|--4-----------4-----------4-----------------6--|--4-----------4------------
    A---|--2-----------2-----------2--------------------|--4------------------------
    E---|-----------------------------------------------|--2------------------------…
  • drop-d tuning
    
    intro (w/ channel switching):
      D5
    e--------------------------------------------------------
    B--------------------------------------------------------
    G--------------------------------------------------------
    D-0------------------------------------------------------
    A-0------------------------------------------------------
    D-0------------------------------------------------------
    
    verse;…
  • Tuning: Std
    
    	(1st Verse)
    e|---5---5---3---3---0---0---|
    B|---6---5---4---3---2---3---|
    G|---7---7---3---3---2---2---|
    D|---7---7---5---5---2---2---|
    A|---5---5---5---5---0---0---|
    E|-----------3---3-------3---|
    
    	(Chorus)
    e|--0---0---0---0---|
    B|--3---3---2---3---|
    G|--2---4---2---4---|
    D|--0---0---0---0---|
    A|-----(5)-----(5)--|
    E|--2---3---2---3---|
    
    	(Bridge)
    e|---1---0--(1)--0---0---1---0--(1)--0---0---|
    B|---3---3---3---1---2---3---3---3---1---2---|
    G|---2---0---3---2---2---2---0---0---2---2---|
    D|---0---2---3---2---2---0---2---3---2---2---|
    A|-------3---1---0---0-------3---1---0---0---|
    E|-------------------------------------------|
    
    	(2nd…
  • Intro:
    
    	Eb  Bb   C
    	/ . / .  / . . .  . . . .
    
    Verse 1:
    
    	fuzz bass under verses:
    
    	 F                 Eb
    	 v   v   v   v     v   v   v   v
    	-----3-----------|-----------------
    	-3-------3---2---|-1-------1---2---
    	-----------------|-----3-----------
    	-----------------|-----------------…
  • Legend
    ====
    ==== - Rub strings with picking
    ====   hand over pick-ups.(the sleeve of your arm
    ====   usually sounds best)
    
    E-------------====---------------====-----------==---
    B-------------====---------------====-----------==---
    G---------5/7-====-------5/7p5---====-------5/7-==---
    D---0-5h7-0---====-0-5h7-0-----7-====-0-5h7-0---==---
    A---5-5-------====-5-5---------5-====-5-5-------==---
    E-------------====---------------====-----------==---
    
    E----------------------------------------------------
    B--------------------10--------------------10p8-10-8-
    G-------5/7p5---9-10----------------7h9h10------0--0-
    D-0-5h7-0-----7-0-0-----0------0------------------
    A-5-5---------5-----------------------------------
    E----------------------------------------------------…
  • Verse:
      E    B   E           A->A
      Seen all good things and bad
      E       B    E   A
      running down the hill
      E   B  E            A
      All so battered and brought to the
      E       B  E   A
      ground
      E B  E…
  • Am
    How do
    E 
    you get
    G5 
    your teeth so
    D        E
    pearly?
    
    Am
    Children
    E
    dishes
    G5
    White-washed
    D      E
    faces
    
        F              C
    She runs from, her third world
    Am      E
    cry  -   ing
    
    Am
    Yellow
    E…
  • Intro: E7 D7 C7 F#7 E7
    
            Am  
            You know you should
            But you don't
    
          Ab                 B7
            You know you should
                         Am 
            But you don't
    
            You got some…
  • Standard tuning.
    
    
    Am             D
    How come I end up where I started?
    Em             D
    How come I end up where I went wrong?
    Am                  D
    Won't take my eyes off the ball again
    Em                D
    You…
  • Tuning    (D A d g h e)
    
    Intro:
    
    D1 (0 9 x 7 x x)    |
    C# (0 7 x 5 x x)    |
    A# (0 5 x 3 x x)    |
    D2 (0 10 x 9 x x)   |
    D1 (0 9 x 7 x x)    |
    D3 (0 0 0 7 x x)    V
    
    Verse:
    The first "You know you should, but…
  • C Em G C x2
     
    C Em 
    I'm the next act 
    G C Em G C 
    waiting in the wings 
    C Em 
    I'm an animal 
    G C Em G C 
    Trapped in your hot car 
    C Em 
    I Am all the days 
    G C Em G C Em 
    that you choose to ignore
    
    Chorus:…
  • Chords Used:
    ============
    Bm: 224432
    A: 002220
    G: 320033
    D: xx0232
    Em: 022000
    F#m: 244222
    Each chord is randomly picked.
    
    Bm A G D Em F#m
    Disjointed, scare ourselves of all that you wanna be
    Bm A G D Em F#m
    Just…
  • Standard Tuning EADGBe
    
    This is a fairly abstract song to say the least so I did what I could. 
    
    It also sounds good in drop D tuning (especially the chorus)
    
    
    Intro: Percussion mimicked on guitar 
    
    Bassline: 
    
    E|------------------------------------|
    B|------------------------------------|
    G|------------------------------------|
    D|------------------------------------|
    A|-3-3-3h5--3--33--2--0h2--0----------|
    D|---------------------------1--1/3-3-|
    
    
    Verse…
  • Am
    Wish that I could come out of the fog
         G
    Superhero powers
                     F
    Burst out of the sand
    in a bunch of flowers
    
    E
    You just say the word
        D7
    Apparition comes
                    Am
    With a long…
  • Em        C
    Oh Banana Co
     	  G    G/F# 	  G    G/F#
    We really love you and we need you
    
        Em        C
    And oh Banana Co
    	    G    G/F#   G     G/F#
    We'd really love to believe you but
    Cm 		       G
    Everything's…
  • Dsus--- xxx231
    Dsus#-- xxx230
    Am------ xx2210
    Am----- xx2200
    
    Dsus           Dsus#              Am                               Am
    The people wait, through the debate, the lives of people at stake
    
    Dsus…
  • F#6/9 - F#6/9 - F#6/9 - E6 - E6 - 
    - Badd9 - C#add9 - C#add9
    F#6/9 - F#6/9 - F#6/9 - E6 - E6 - 
    - Badd9 - C#add9 - C#add9
    E6 - F#6/9 - F#6/9 - E#7sus4 - F#add9 - F#add9
    B----------------------------------------------------|add9…
  • (Standard Tuning)
    
    Intro
    ------
    e|-4---4--4--4--5--4--3-1-0---0--0--0--0--0--0-
    B|-2---2--2--2--2--2--1-----1-1--1--1--1--1--1-
    G|-2---2--2--2--2--2--0-------2--2--2--2--2--2-
    D|-2---2--2--2--2--2--2-------3--3--3--3--3--3-
    A|-0---0--0--0--0--0--3-------3--3--3--3--3--3-
    E|--------------------0-------0--0--0--0--0--0-
    
    e|-4--4--4--4--4--5--4--3-1-0-0--0--0--0--0--0-
    B|-2--2--2--2--2--2--2--1-----1--1--1--1--1--1-
    G|-2--2--2--2--2--2--2--0-----2--2--2--2--2--2-
    D|-2--2--2--2--2--2--2--2-----3--3--3--3--3--3-
    A|-0--0--0--0--0--0--0--3-----3--3--3--3--3--3-
    E|----------------------0-----0--0--0--0--0--0-
    
    e|-4--4--4--4--4--5--4--3-1-0-0--0--0--0--0--0-
    B|-2--2--2--2--2--2--2--1-----1--1--1--1--1--1-
    G|-2--2--2--2--2--2--2--0-----2--2--2--2--2--2-
    D|-2--2--2--2--2--2--2--2-----3--3--3--3--3--3-
    A|-0--0--0--0--0--0--0--3-----3--3--3--3--3--3-
    E|----------------------0-----0--0--0--0--0--0-
    
    
    Verse
    ------play…
  • (6/=bend up one tone unless indicated /6=prebend /\=bend(/) and 
    release(\)
     
    Riff A (Thom Yorke)(clean)
    
    d-----5-----5-----5---------
    B-------6-----6-----6---6---
    G---------7-----7-----7---7-
    D-0-7-----------------------
    A---------------------------
    E---------------------------…
  • the main part is a descending riff, starting on E:
    e-----------------------------------------------|
    B-----------------------------------------------|
    G-----------------------------------------------|
    D-----------------------------------------------|
    A---7--6--5--4----------------------------------|
    E-----------------------------------------------|
    
    i…
  • C#7M  : C# chord with added C
    C(#9): C chord with added Eb (as well as the regular E)
    C#add9 C# chord with added Eb
    F#(b5): F# chord but with A C instead of C#
    E(b5): E chord but with A Bb instead of B
    
    Intro:
    D D/C#…
  • Standard tuning
    
    This is a piano song, but this sounds pretty good on guitar.
    
    Intro/verse
    
    E---------------|
    B--------6------|
    G----6-5---6-5--|
    D--3------------|
    A---------------|
    E---------------|
    
    ^That…
  • Chords:
           EADGBe
    B      x24442
    Bsus4  x24452
    B7     x24242
    A      x02220
    G      320033
    D      xx0232
    
     
    B 
    were rotten fruit 
    B     Bsus4
    were damaged goods 
    B                               B7       B
    what…
  • Capo @ 5
    
    D-----5------5--------------------------------|
    A-------5------5------------------------------|
    G---0------------0----------------------------|
    D---------------------------------------------|
    A---------------------------------------------|
    D-5--------5----------------------------------|
    
    
    D-5--5--5--5--6--6--6---------------------------------|
    A-5--3--2--3--3--5--6---------------------------------|
    G-0--0--0--0--0--0--0---------------------------------|
    D-----------------------------------------------------|
    A-------------------3---------------------------------|
    D-5--5--5--3--1--0------------------------------------|…
  • Intro/Interlude
      F#  Gmaj7 A6        
    e-2--2--2--2--2--2--2--2--2-
    B-2--2--3--2--2--2--3--2--2-
    G-3--3--0--2--2--2--0--3--3-
    D-4--4--0--2--2--2--0--4--4-
    A-4--4--2--0--0--0--2--4--4-
    E-2--2--3-----------3--2--2-
    
    Verse…
  • Am7 - x02010
    Dm  - xx0231
    Cm7 - x32000
    F   - x3321x
    
    
    There is a little riff to add on after each line of Am7
    also move it up a string for the Dm line
    
    e|-------|
    B|-------|
    G|-------|
    D|-------|
    A|-----0-|
    E|-0-3---|
    
    
    Verse…
  • Gm 	- x 10 x 0 11 x
    Cm 	- 8 x x 8 x x
    Cm 	- 8 x x 0 8 x
    Eb 	- x 6 x x 8 x
    Dm 	- x 5 x x 6 x
    G/B 	- 7 x x 0 8 x
    G7/B 	- 7 x x 0 6 x
    Dmsus4 	- x 5 x x 8 x
    F 	- x 8 x x 8 x
    F 	- x 8 x x 6 x
    Gm(low)	- 3 x 0 3 x x
    F…
  • Intro/main riff:
       Am		     D/F#	       F		 D/F#
    E----------7p5---------------7p5---------------7p5---------------7p5--------|
    B----5---5-------5-----4---4-------4-----3---3-------3-----4---4-------4----|
    G--5---5-------5---5-5---5-------5---5-5---5-------5---5-5---5-------5---5--|
    
    
    Am…
  • Intro/Verse                                           
    A|----------------|----------------|----------------|6-6-6--5-5------|
    E|3-3-3--3-3-/6-6-|2-2-2--2-2-/6-6-|1-1-1--1-1-/6-6-|------------6-5-|
     
    Intro Second ending…
  • Intro:
    
    A C#m G# F# E F# E G# F# A G# F# E G# F# A G#
    
    A C#m G# 
    
    A C#m G# F# E F# E G# F# A G# F# E F# E G#
    
    
    F# A G# F# E G#
    While you make pretty speeches
    
    F# A G#
    I'm being cut to shreds
    
    F# A G# F# E…
  • G
    This dance
    D
    This dance
    Em
    Is like a weapon
    C
    Is like a weapon
    
    G
    Of self defense
    D
    Of self defense
    Em
    Against the present
    C
    Against the present
    Present tense
    
    G
    I won't get heavy
    D
    Don't get heavy
    Em
    Keep…
  • Intro   (Bass)
    
     D G F# E F# A B A B A B A B x2
    
     Verse   (Bar Chords) Clean Guitar                       Note: on the A & B
                                                             bits, play A 3 times
     D       G…
  • G|--------------------------------------------------------------------
    D|-9------------------7-----7---9---9------------------7-----7---7-9--
    A|----------------9-------9------------------------9-------9---9------
    E|---7-7---10-------------------------7-7---10------------------------…
  • Intro
    
    E-----------------------------------------------------------------
    B-----------------------------0---------------------------0-------
    G-------0---------2-------2-----2-------2p0-----0-----------2-----
    D---------2-----2---2-------1-----1---------------2-----2---------
    A-----2-----2-0-------0/2-----------0h2-------2-----2-0-------0/2-
    E---0---------------------------------------0---------------------…
  • EADGBe
    G   = 320033
    C/G = x30033
    C   = x32010
    Am  = x02210
    C/B = x2001x
    
    G	G/C			 G
    I can't afford to breath in this town 
    G	G/C			 G
    Nowhere to sit without a gun in my hand
    G      C	     D	     G 
    Hooked back…
  • main rythm riff (played through the whole song)
        C                Cadd9 C     Em    C
      ========================================
    e|----------------------------------------|
    B|-------1-----1-----3--p--1--p--0--h--1--|
    G|----------0-----0-----------------------|
    D|-----2----------------------------------|
    A|--3-------------------------------------|
    E|----------------------------------------|…
  • C - x32010
    Bb - x1333x
    Dm - xx0231 or x57765
    Gm - 355333
    Am - x02210
    Am7add13(no5) - x05755
    D11(no5)/C - X32032 (think Cadd9 with the last string on the 2nd fret)
    
    Intro:
    C - Bb - Dm
    C - Bb - Dm - Dm
    
    C…
  • Tuning:Normal
    It starts of with the bass and the guitar playing together:
    G|---------------------------------------------------------------------------|
    D|-------------------------10--8---------------------------------------------|
    A|----------------10--8------------10----------------------------------------|
    E|--3------------------------------------------------------------------------
    Second…
  • Short fill near begining.
    [0.56]
    G|------------------------------|
    D|------------------------------|
    A|----------------6-6--6h7-7/6--|
    E|--6-6-6--7-7-7----------------|
    
    
    Main Riff
    Enters at [1.31], stops at [2.25]…
  • D              G           A     D
    I've had these jeans since i was born
    
    D               G          A           D
    And now they're ripped And now they're torn
    
    D          G            A    Em      G
    And all my friends…
  • intro:
    
    Ebm - Ebm - Daug - Bb/D
    Ebm - Ebm - Bb/D - Dm/A
    Ebm - Ebm - F - F
    Ebm/Bb - Ebm/Bb - F/A - F/A
    
    verse 1:
    
    Ebm - Ebm - Daug - Bb/D
    Ebm - Ebm - Bb/D - Dm/A
    Ebm - Ebm - F - F7
    Ebm/Bb - Ebm/Bb - F/A - F/A
    Ebm…
  • Then this with heavy distortion
    
    A  002220
    G  210003
    D  000232
    
    A            A       G          D
    ////    //// ///////////////////  (8 on G, 8 on D)
    
    A            A       G          D
    ////    //// ///////////////////…
  • C       032010
    D       000232
    Am      002210
    G       320003
    --------------------------------------------------------
    
    Intro:
    --------------------------------       X 2
    --------------------------------
    ---------------------0----------
    ----------0---2-----------2--0--
    -----0--2-----------------------
    --3-----------------------------…
  • CAPO on 2nd fret
    
    Em/D        - 022033
    G           - 320033
    Gsus2       - xx0233
    Gsus2/E     - x02033
    Gsus2/E (2 fr.)  - x02233
    Gsus4/E     - x32033
    A/Ab        - 2x0033
    
    INTRO: Em/D, G, Gsus2, Gsus2/E X2
    
    Verse…
  • Key:-
    
    CC: crash cymbal
    RC: ride cymbal
    HH: hi hat (x: closed; o: open)
    SD: snare drum (f: flam)
    BD: bass drum
    ST: small tom tom
    LT: large tom tom
    FT: floor tom tom
    
    Intro:
    
    
    CC x---------------|----------------|----------------|----------------|
    HH…
  • Bm
    Wakey wakey rise and shine it's on again,
    Bm/A         Bm/G
    off again, on again
    B
    watch me fall like dominos in pretty patterns
    Bm
    Fingers in the blackbird pie im tingling 
    Bm/A       Bm/G
    tingling tingling
    B
    it's…
  • chords used:
       F#m   G        A       E
    1I-2-------3---------0--------0
    2I-2-------3---------2--------0
    3I-3-------0---------2--------1
    4I-4-------0---------2--------2
    5I-4-------2---------0--------2
    6I-2-------3---------X--------0
    
    
    Intro:
    F#m…
  • Tuning: E-A-D-G
    Notes: Use a pick
    ~ - Let Ring
    \ - Slide Down
    / - Slide Up
    
    
    
    First Verse: Bass enters at :57
    G|--6-6--6-6---6-6--6-6--6-6-----|
    D|-------------------------------|
    A|-------------------------------|
    E|---------------------------6-6-|…
  • Вступление C#(xx6604) B(xx4402) A(x00220) E(022100) 2 раза 
    Используемые аккорды
    C#(xx6604)
    B (xx4402)
    A (x02200)
    E (022100)
    B/F# (2x42xx)
    B/F#                          A                               E…
  • There is actually only piano is this but this is it for guitar
    
    e-------------------------8--6----------------------6---6-----------------------------
    B-------------------------------------------------------------------------------------
    G--6---5---6----6--5--6---------5---6---5---6--5------------5----6----5----6--5--6--5-
    D-------------------------------------------------3-----------------------------------
    A-------------------------------------------------------------------------------------
    E-------------------------------------------------------------------------------------
    Starts…
  • Tunning: EADG
    
                  (x?)
    G :----------------|----------------------------------------------------------------------------------|
    D :---------7------|--------7----7-----7----7---------------------------------------7-----7-----7---7-|
    A…
  • D   Dsus2  Dsus4  Asus4  A7Sus4
    -2-   -0-    -3-    -0-    -3-
    -3-   -3-    -3-    -3-    -3-
    -2-   -2-    -2-    -0-    -0-
    -0-   -0-    -0-    -2-    -2-
    ---   ---    ---    -0-    -0-
    ---   ---    ---    ---…
  • Chords used:(from low to high)
    
    Am x-0-2-2-1-0
    Em 0-2-2-0-0-0
    F 1-3-3-2-1-1
    C x-3-2-0-1-0
    Bb x-1-3-3-3-1
    Dsus4 x-x-0-2-3-3 (i suggest u play an ordinary d and just put your pinky on
    D x-x-0-2-3-2      the third fret…
  • BEGINNING :
    Em
    -0--------12-----12-------0----12------------------------------------------------
    -0-------------------------------------------------------------------------------
    -0-------------------------------------------------------------------------------
    -2-------------------------------------------------------------------------------
    -2----------------------------------------7---6------10---9-----13---12----------
    -0-------------------------------------------------------------------------------
    w/phaser
    
    INTRO…
  • This is only the basic intro and verse riff to the song
    
    e----------------------------|
    B---3----3----3----2----2h3--|
    G---2----2----2----2----2----|
    D-0-0--0-0--0-0--0-0--0-0----|
    A----------------------------|
    E----------------------------|
    
    The…
  • Tuning: Standard EADGBe
    
    
          Em                  F                      Em
    e|-------------------|----------------------|--------------------------------|
    B|----8--------------|----10----------------|----8---------------------------|
    G|------9---(All…
  • e-------------------------------------|
    B17--15--13h15p13--13--12-------------|
    G-------------------------14----------|
    D-------------------------------------|x12
    A-------------------------------------|
    D-------------------------------------|
    
    e---------------------------|
    B---------------------------|
    G--7--9--7--9--7--9--7--9---|…
  • Bb - Fm - 3x
    
    Bb
    It's like I'm falling out of bed
           Fm                    Bb
    From a long and vivid dream
                                    Fm                   Bb
    The sweetest flowered fruits are hanging from a…
  • First you have to tune your guitar up to:
    
    e
    C#
    A
    D
    A
    D
    
    To get that tuning you have to tune the B and G strings up 2 notes and the low E down 2:
    
    Tune the B to the 6th on the G
    Then the G to the 7th on the D
    
    (I…
  • Intro ( x 12 )
    e|-----------------------|
    B|-----------------------|
    G|-----------------------|
    D|-----------------------|
    A|-----------------------|
    D|-0-0-0-3-5-3-5-3-5/6\3-|
    
    Guitar Part1 ( x 2 )
    e|-----------------------------------------|
    B|-333--6--8-8-8--10-10-10-10--13-13-12-12-|
    G|-----------------------------------------|
    D|-----------------------------------------|
    A|-----------------------------------------|
    D|-----------------------------------------|
    
    Guitar…
  • Chords
    G (355433)
    C7M/G   (335453)
    Gadd4 (335433)
    Cm/G (335543)
    
    G                         C7M/G  
    You don't want to talk to me
    G                         C7M/G  
    You don't want to say the words
    G…
  • Intro:
      Dm			  G#
    -----5---------------4---------
    -6-------6-6-5-----------------
    -7-7-----------7-6-5---5-6-5---
    -7-----------------6---------6-
    -5-----------------6-----------
    -------------------4-----------…
  • INTRO:
    
    Drums for 2 bars then...
    
        1   +   2   +   3   +   4   +   1   +   2   +   3   +   4   +
    e -------------------------------------------------------------------
    B ------7---------------5---------------3---------------2------------
    G…
  • Standard tuning
    
    Intro
    
    C   F     X2
    
    
           C                       F
    Well I dreamed I saw the silver spaceship flying
    
          C                  F
    In the yellow haze of the sun
    
            C…
  • Drop D Tuning DADGBe
    
    The song really revolves around this riff (intro and verse): 
    
    d-0---------0---------0--------------0---/
    B-3---------3---------3--------------3---/
    G-2---------2---------2--------------2---/
    D-0---------0---------0------2p0-----0---/
    A-0---------0---------0--------------0---/
    D-0--3---2--0--3---2--0--3\2-----0---0---/
    
    
    Verse…
  • Works best in Open G tuning: DBGDGD, from 1st (high) string to 6th (low)
    string. All re-tuned strings are tuned down.  Although there is little
    or no use of the 1st & 6th strings I would still recommend tuning them
    down…
  • -> slide down
    <- slide up
    h- hammer on
    p- pull off
    ~- vibrato
    
    
    romeo and juliet- Radio head
    
    -----------------------------------------------------------|
    ---------44----------------------44--------------44--------|
    --------------7---5-----------------7---5-----------7--5---|
    -----------------------------------------------------------|
    -----------------------------------------------------------|
    --5->-7--------------------5->-7---------------------------|
    
    
    --------------------------------------------------------------|
    ------44---------------44--------------44---------------------|
    ---------7----5------------7--5-------------7----5------------|
    --------------------------------------------------------------|
    --------------------------------------------------------------|
    --------------------------------------------------------------|
    (repeat…
  • A7         C7M      E
    Dressed in bishop's robes
                  C7M  
    Terrifies me still
       A7       C7M       E
    In bishop's robes
    A7      C7M           E
    bastard he-e-eadma-a-ster
         A        C           A…
  • INTRO:
    
    A - D - A - D - A - D - E 
    x2
    
                            D               A
    This is just a nightmare
                                D             A
    Soon I'm gonna wake up
                                    D…
  • Tuning: Standard
    
    e|---------------------------------------------------------------------------|
    B|----16-18-20--16-18-----------------------------------------------(times 3)|
    G|-17------------------------------------------------------------------------|
    D|---------------------------------------------------------------------------|
    A|---------------------------------------------------------------------------|
    E|---------------------------------------------------------------------------|
    
    e|---------------------------------------------------------------------------|
    B|----16-18----16----16-18----16---------------------------------------------|
    G|-17-------15----17-------15----17------------------------------------------|
    D|---------------------------------------------------------------------------|
    A|---------------------------------------------------------------------------|
    E|---------------------------------------------------------------------------|
    
    
    ************************************
    
    |…
  • Standard tuning
    
    *The bass part is legato, i.e. tie all your notes together for the most part.
    
    **When you see a 20 or 40, it's quick 2-0 or 4-0, not 20th and 40th fret
    
    
       1   2   3   4     1   2   3   4     1…
  • Key: G
    Time Sig: 4/4
     
     | Rhythm Figure 1 (guitar 1, slight dist.)
     | 1 e amp; a 2 e amp; a 3 e amp; a 4 e amp; a | 1 e amp; a 2 e amp; a 3 e amp; a 4 e amp; a |
     |=================================|=================================|
    e|-0-------------------------------|-----------------0-----------0---|
    B|-3-------3-------3---3-------3---|-----3-----------3-----------3---|
    G|-2-------2---2---2-------2---0---|-----0-------0-----------0-------|
    D|-0---------------------------0---|---------------------------------|
    A|-0---------------------------x---|---------------------------------|
    D|-----------------------------3---|---------------------------------|…
  • intro: D, C, B, C, B, C (x4)
    verse: E, G, C (x2)
    
    then:
    --------------------------------------------------------
    -2----2-3-5-8-7-5-----5----5-6-8-11-8-11-8-11-8-11^-----
    -2--------------------5---------------------------------
    -2--------------------5---------------------------------
    -0--------------------3---------------------------------
    --------------------------------------------------------
    
    then:…
  • Intro (this part is done on bass, i think)
    
    e-----------------------|
    B-----------------------|
    G--------9-----7--------|
    D-----------------9-----| X4
    A--7-----------------10-|
    E-----------------------|
    
    Piano bit
    
    e--0--2----------2----------2----------2--|
    B--3--5----------5----------5----------5--|
    G--2--4--4-4--4--4--4-4--4--4--4-4--4--4--|
    D--0--2--2-2--2-----2-2--2-----2-2--2-----|
    A-----------------------------------------|
    E-----------------------------------------|
    
    I…
  • Dmin/F        E7
    Turn to nasty now
    Gm       D/F#
    The dark cell
    Bb      A    C   Bm
    The pillar of my soul
    
    Dmin/F   E7  Gm         D/F#
    The last one out of the box
    Bb  A          C          Bm
    The one who broke…
  • [Intro]
    
    G7M    Em9  G7M    Em9  G7M    Em9 
    
    D         D7M  
    I'm lost, I'm a ghost
    Bm           Bm7
    Dispossessed, taken host
    G7M             Em9
    My hunger burns a bullet hole
    G7M             Em9
    A spectre of…
  • Em                         B
    Beauty will destroy your mind
    
                          G
    Spare the gory details
    
                                D                 B
    Give them gift wrap for the man with everything
    
    
    Em…
  • -----0-----   -----0-----   -----0-----   -----2-----   -----4-----
    -----0-----   -----2-----   -----0-----   -----2-----   -----5-----
    -----2-----   -----2-----   -----1-----   -----2-----   -----4-----
    -----2-----…
  • All guitars standard tuned
    E A D G B E
    T: 3/4
    ______________
    
    
    Wolf at the Door
    
    
    Intro: Dm Gm A
    
    Dm
    drag him out the window
    
    dragging out your dead
    
    singing i miss you
    Dsus2
    snakes and ladders
             Gm
    flip the lid
    
    out…
  • I play the verses this way, sounds better and is more fun to play I think:
    
         C                       F
    E|---0-----0-----0-----0-----1-----1-----1-----1----|
    B|---1-----1-----1-----1-----1-----1-----1-----1----|
    G|---0-----0-----0-----0-----2-----2h3---2-----2h3--|
    D|---2-----2h3---2-----2h3---3-----3-----3-----3----|
    A|---3-----3-----3-----3-----0-----0-----0-----0----|
    E|--------------------------------------------------|…
  • INTRO:
    Strum E repeatedly
    
    CHORDS:
    
    E        C   G        G7M           E
    And if I get old,     I'll not give in
    And if I do, remind me to pray
    Remind me that I was always free
    The spiders crawl all over me
    And…
  • Chords:
    Fm	133111
    C	032010
    G	320033
    Ab5     466xxx
    Em	022000
    G5	355XXX
    
    Intro riff:
    (play with high chorus and reverb for the full effect)
    
    e-----------------------15--13--------|
    b--------13--13--13------------14--13-|
    g---13--------------------------------|
    d-------------------------------------|…
  • G
    Dreamers
    D
    They never learn
    Em
    They never learn
    C
    Beyond the point
    G       D
    Of no return
    Em      C
    Of no return
    
    G
    And it's too late
    D
    The damage is done
    Em            C
    The damage is done
    
    G
    This…
  • e|---3--------8--------------1----4------5------------------------------172-|
    B|--------------------7-----------17--------6------------------------0------|
    G|--------------12--------2-------5------------6----------------------------|
    D|----------5---------------------67--------------34---------------9--------|
    A|--------------------------------1-------------------25--------------------|
    E|-------2------------------------2-----------------------77777777----------|
    
    e|----4-----------------1---3-----------------------6-----------------------|
    B|----------------------5-------5---------------5-------8-------------------|
    G|---------3------------2-----------6---36---2-------------42---------------|
    D|----------------------52------------------------------------79-----3------|
    A|------------7---------97---------------------------------------58----5----|
    E|------------------6---128----------------------------------------------287|…
  • drop-C tuning
    
    t-tap
    p-pull off
    
    e--------------------------------------------------------------|
    B----3-4-----4---4---------4-----4---4---------4-----4---4-----|
    G--------3---0---0-------0-------0---0-------0-------0---0-----|
    D--------------------------------------------------------------|
    A--------------4---3---------3-----4---3---------3-----4---3---|
    C--0-------------------0-------------------0-------------------|
    
    e------------------------------------------|
    B------5-----5---5---------5-----5---5-----|
    G----0-------0---0-------0-------0---0-----|
    D------------------------------------------|
    A--------3-----4---3---------3-----4---3---|
    C--0-------------------0-------------------|
    
    e------------------------------------------|
    B------4-----4---4---------4-----4---4-----|
    G----0-------0---0-------0-------0---0-----|
    D------------------------------------------|
    A--------3-----4---3---------3-----4---3---|
    C--0-------------------0-------------------|
    
    e--------------------------------------------------------------|
    B------5-----5---5---------5-----5---5---------5-----5---5-----|
    G----0-------0---0-------0-------0---0-------0-------0---0-----|
    D--------------------------------------------------------------|
    A--------3-----4---3---------3-----4---3---------3-----4---3---|
    C--0-------------------0-------------------0-------------------|
    
    e------------------------------------------|
    B------7-----7---7---------7-----7---7-----|
    G----0-------0---0-------0-------0---0-----|
    D------------------------------------------|
    A--------5-----6---5---------5-----6---5---|
    C--0-------------------0-------------------|
    
    e------------------------------------------|
    B------5-----5---5---------5-----5---5-----|
    G----0-------0---0-------0-------0---0-----|
    D------------------------------------------|
    A--------3-----4---3---------3-----4---3---|
    C--0-------------------0-------------------|
    
    e--------------------------------------------------------------|
    B------8-----8---8---------8-----8---8---------8-----8---8-----|
    G----0-------0---0-------0-------0---0-------0-------0---0-----|
    D--------8-----7-------------8-----7-------------8-----7-------|
    A------------------8-------------------8-------------------8---|
    C--0-------------------0-------------------0-------------------|
    
    e---------------------------------------------|
    B------3-----3---3---------3-----3---------3--|
    G----0-------0---0-------0-------0---------0--|
    D--------3-----2-------------3-----2t3p2------|
    A------------------3---------------------3----|
    C--0-------------------0----------------------|
    
    e-----------------------------------------|
    B------1-----1---1---------1-----1---1----|
    G----0-------0---0-------0-------0---0----|
    D--------1-----0-------------1-----0------|
    A------------------1-------------------1--|
    C--0-------------------0------------------|
    
    e-----------------------------------------|
    B------3-----3---3---------3-----3---3----|
    G----0-------0---0-------0-------0---0----|
    D--------3-----2-------------3-----2------|
    A------------------3-------------------3--|
    C--0-------------------0------------------|…
  • _1st Part_______________________________________________________________________________________________________
    
    Intro (Polite Guitar)
        A   G#  G   F#    
    E---5---4---3---2---|
    B---5---4---3---2---|
    G---6---5---4---3---|
    D---7---6---5---4---|
    A---7---6---5---4---|
    E-------------------|…
  • Intro: (C#) Fm C G# Dm
    
    Fm
    I’m getting sort of worried
             C
    like the time of life I’ve reached
        G#
    I’m getting pretty old
                Dm              (C#)
    I should be reaching my peak
    
          Fm
    but…
  • G|---------------12----------------------------------------------------------|
    D|---------12-14-------------------------------------------------------------|
    A|12-14-15-------------------------------------------------------------------|
    E|---------------------------------------------------------------------------|
    
    Other…
  • Tunning: EADG
    
    
              Verse    (x7)    Fill1
    G:------|---------------|-------------------|-----------|---------------|
    D:------|---------------|-8-7-5-------------|-----------|--------/12-10-|
    A:-Rest-|-3--333-5-3-3--|-------8--8-7-5(5)-|-Verse(x2)-|-3--333--------|
    E:------|---------------|-------------------|-----------|---------------|
    
    
    G:-----------|---------------|-----------|-----------|-----------|--------------|
    D:-----------|--------/12-10-|-----------|-----------|-----------|-------5--3---|
    A:-Verse(x1)-|-3--333--------|-Verse(x1)-|-Fill1(x1)-|-Verse(x1)-|-3-333------5-|
    E:-----------|---------------|-----------|-----------|-----------|--------------|…
  • KEY:
    ~ = Let ring
    h = Hammer on
    b = Bend note
    
    
    Intro Solo by Thom (0:34)                                 (0:47)
    
    e -----------------------------------------------------|--0~---0~--|
    b -----------------------------------------------------|--0~---0~--|
    g…
  • G|--------------------------------|-----------------|
    D|--------------------------------|-----------------|
    A|---------------------6----------|6----------------|
    E|88-8-88-8-88-8-88-8----6-8--8-8-|---6-8--8-8------|x7
    
    G|--------------------------------------------------|
    D|--------------------------------------------------|
    A|--------------------------------------------------|
    E|88-8-8-88--88-8-8-88-88-8-8-88-88-8-8-88-88-8-8-88|
    
    
    G|--------------------------------------------------|
    D|--------------------------------------------------|
    A|6-----------6-----------6-6-----------6-----------|
    E|--6-8--8-8----6-8--8-8------8--8-8------6--8--8-8-|
    
    G|--------------------------------------------------|
    D|------8-8-7------6-6-5----------8-8-7-------6-6-5-|
    A|6-----------6------------6------------6-----------|
    E|--6-8---------6-8----------6-8----------6-8-------|
    
    G|-------------------------------|------------------|
    D|-------------------------------|------------------|
    A|-------------------------------|6-----------------|
    E|88-8-8-88--88-8-8-88-88-8-8-88-|---6-8--8-8-------|x4
    
    
    G|--------------------------------------------------|
    D|--------------------------------------------------|
    A|--------------------------------------------------|
    E|88-8-8-88--88-8-8-88-88-8-8-88-88-8-8-888--88-88--|…
  • G
    Hey it's me
    D
    I just got off the train
    Em
    A frightening place
    C
    Their faces are concrete grey
    G
    And I'm wondering, should I turn around?
    D
    Buy another ticket
    Em
    Panic is coming on strong
    C
    So cold, from…
  • Tunning: EADG
    
    
    G:------|-----|-----------------------------------------------|
    D:-rest-|-----|-----------------------------------------------|
    A:------|-----|-----------------------------------------------|
    E:------|-12-|-0--0-4-5--4-0--0-0-4-5--4--0--0-4-5--4-0(0)---|…
  • Chorus:
    G
    And in your life, there comes a darkness
    D
    There's a spacecraft blocking out the sky
    Em
    And there's nowhere to hide
    C
    You run to the back and you cover your ears
    G
    But it's the loudest sound you've ever…
  • Verse 1:
    G
    It holds us like a phantom
    D
    It touches like a breeze
    Em
    It shines its understanding
    C
    See the moon is smiling
    
    G
    Open on all channels
    D
    Ready to receive
    Em
    Cause we're not at the mercy
    C
    Of your…
  • There are five chords used:
    
    A   (an A-major picked chord)
    (Played in the verses)
    e----------------------------
    b-----------(2)-------------- (first time only)
    g---------2-----2-----2------
    d------2-----2-----2-----2---
    a---0------------------------
    e----------------------------
    
    (This…
  • Chords:
    
    open A     Bm    E(VII)  A   F#m(IX)  C     D
    
    e|--0-------7------7-----5-----9------3-----5--
    B|--2-------7------9-----5-----10-----5-----7--
    G|--2-------7------9-----6-----11-----5-----7--
    D|--2-------9------9-----7-----11-----5-----7--
    A|--0-------9------7-----7-----9------3-----5--
    E|--0-------7------x-----5-----x------x-----x--
    
    Intro,…
  • G
    You really messed up everything
    D
    You really messed up everything
    Em
    If you could take it all back again
    C
    Break out the tinderbox
    G
    Why should I be good if you're not?
    D
    This is a foul tasting medicine
    Em
    A…
  • Verse 1:
    G
    All the holes at once are coming alive, set free
    D
    Out of sight and out of mind, lonely
    Em        C
    And their prey
    
    Chorus:
    G
    The ones you light your fires to keep away
    D
    Crawling out upon, expending
    Em…
  • G
    Now as I Go upon my way
    D
    So let me Go upon my way
    Em
    Born of a light
    C
    Born of a light
    
    G
    The wind rushing round my open heart
    D
    An open ravine
    Em
    With my spirit light
    C
    Totally alive
    And my spirit light
    
    G
    Through…
Наверх