Аккорды «Raging Speedhorn»

Raging Speedhorn
Raging Speedhorn - представители новой волны металла, к тому же металла британского. Сразу после своего появления в 1998 году группа привлекла внимание публики своими выступлениями. Пугающий сценический имидж, брутальные гитарные риффы и непрекращающийся рёв двух вокалистов - вот характерные особенности Raging Speedhorn. К 2000 году группа стала вполне узнаваема у себя на родине, выпустив два главных своих сингла: The Gush и Thumper. И довольно скоро о Raging Speedhorn узнали повсеместно, что вылилось… Читать полностью... Raging Speedhorn - представители новой волны металла, к тому же металла британского. Сразу после своего появления в 1998 году группа привлекла внимание публики своими выступлениями. Пугающий сценический имидж, брутальные гитарные риффы и непрекращающийся рёв двух вокалистов - вот характерные особенности Raging Speedhorn. К 2000 году группа стала вполне узнаваема у себя на родине, выпустив два главных своих сингла: The Gush и Thumper. И довольно скоро о Raging Speedhorn узнали повсеместно, что вылилось в сотрудничество группы с Ministry и Biohazard. На данный момент банда выпустила уже 4 полноценных альбома. Скрыть...
Популярные аккорды Raging Speedhorn:
алфавиту | просмотрам | случайно
  • Tuning: low to high - c# g# c# f# a# d#
    
    key
    
    b = bend
    r = release
    ~ = vibrato
    / = slide up
    
    riff1 intro (guitar 1)
    |------------------------------------------------------------|
    |------------------------------------------------------------|
    |------------------------------------------------------------|
    |------------------------------------------------------------|
    |------------------------------------------------------------|
    |--0-0-2br0-0--3br0-0---5b~~---------------------------------|…
  • Tuning: low to high - c# g# c# f# a# d#
    
    key
    
    / = slide up
    b = bend
    r = release
    
    
    riff 1 main riff (guitar 1&2)
    |----------------------------------------------|
    |----------------------------------------------|
    |-----------5-5--5-5--5------------------------|
    |-----------5-5--5-5--5------------------------|
    |---0--0--0-3-3--3-3--3--0--0--0--4/5--3-------|
    |---0--0--0--------------0--0--0--4/5--3-------|
    
    riff…
  • Tuning: db  ab  db
    
    Intro:
    
    db----------------------   
    ab----------------------  X2
    db--00-0-000033-3/5-55-- 
    
    Pre Verse:
    
    db--00-0-000033-3/5-55----
    ab--00-0-000033-3/5-55----  X4
    db--00-0-000033-3/5-55---- 
    
    Verse:
    db--77-6-77-6--4/5-55-4/5-55----…
  • Tuning :D A D G B E
    
    Intro:                Verse:
    E-------------------|-----------------
    B-------------------|-----------------
    G-------------------|-----------------
    D-------------------|-5-/2-1-2-1-2-1-2
    A-------------------|-5-/2-1-2-1-2-1-2
    D-5-/2-1-2-1-2-1-2--|-5-/2-1-2-1-2-1-2
    
    Chorus:
    E--------------------------------------------
    B--------------------------------------------
    G-----9-9---------------------9-9------------
    D-0-0-9-9-6-6-6-6-8-8-8-0-0-0-9-9-6-6-6-5-5-5
    A-0-0-7-7-6-6-6-6-8-8-8-0-0-0-7-7-6-6-6-5-5-5
    D-0-0-----6-6-6-6-8-8-8-0-0-0-----6-6-6-5-5-5
    
    Breakdown:…
  • Tuning: db ab gb
    lots of gain.
    
    Verse:
    
    db--10--9--8--|-4/5-55-555-|--  The brackets are repeated 3 
    ab--10--9--8--|-4/5-55-555-|--  times, the whole thing 7
    db--10--9--8--|-4/5-55-555-|--  times.
    
    Chorus:
    
    db--10--9--8--
    ab--10--9--8--
    db--10-9--8--
    
    db--------------------------
    ab--------------------------…
  • Tuning: low to high - c# g# c# f# a# d#
    
    key
    
    / = slide up
    pm = palm mute
    h = hammer on
    ~ = vibrato
    
    
    riff 1 main riff (guitar 1&2)
    |----------------------------------|
    |----------------------------------|
    |----------------------------------|
    |----------------------------------|
    |---0--3--0--3-/-7--3--------------|
    |---0--3--0--3-/-7--3--------------|
    
    riff…
  • Bass and Guitar
    
    Intro - Bass line 
    D  --------------------------------------------------------------------------------
    A  --------------------3----5------------------------------------------------------
    D  ---0-----3----5-------------5----3------0-----3----5----3------5-6-5-----
    Intro…
  • Tuning: low to high - c# g# c# f# a# d#
    
    key
    
    / = slide up
     = slide down
    h = hammer on
    b = bend
    
    riff1 intro/verse (guitar 1&2)
    |------------------------------------------------|
    |------------------------------------------------|
    |------------------------------------------------|
    |------------------------------------------------|
    |--3-3-3-0--3-3-3-0--4-/-6--3--------------------|
    |--3-3-3-0--3-3-3-0--4-/-6--3--------------------|…
  • Tuning: low to high - c# g# c# f# a# d#
    
    key
    
    / = slide up
     = slide down
    b = bend
    () = holding the bend
    r = release
    
    riff1 verse (guitar 1&2)
    |------------------------------------------------------|
    |------------------------------------------------------|
    |------------------------------------------------------|
    |------------------------------------------------------|
    |--0--0-0--0-0--0-0--0--0--0-0--0----------------------|
    |--0--0-0--0-0--0-0--0--0--0-0--0--3/5b-(5)-(5)-(5)-r--|…
  • This is the riff throughout the song:
    
    e|-------------------------------------------------------------------
    B|-------------------------------------------------------------------
    G|-------------------------------------------------------------------
    D|-10--10--10--10--10--10--------------8---8---8---8---8---8---------
    A|-10--10--10--10--10--10--8h10h11p10--8---8---8---8---8---8--6h8h9p8
    E|--8---8---8---8---8---8--------------6---6---6---6---6---6---------…
  • Tuning: low to high - c# g# c# f# a# d#
    
    key
    
    b = bend
    r = release
    
    
    
    riff 1 intro (guitar 1)
    |-----------------------------------------------------------------|
    |-----------------------------------------------------------------|
    |-----------------------------------------------------------------|
    |---------7-------------------------------------------------------|
    |---------5-------------------------------------------------------|
    |---0--0------0--5-4-3--0--2-3-2----------------------------------|
    
    riff…
  • Tuning: low to high - c# g# c# f# a# d#
    
    key
    
    b = bend
    r = release bend
    ~ = vibrato
    pm = palm mute
    
    riff1 intro (guitar 1)
    |----------------------------------------------------|
    |----------------------------------------------------|
    |----------------------------------------------------|
    |----------------------------------------------------|
    |-----4-b~~------4-b~~------4-b~~--------------------|
    |--0----------0----------0----------0-0-2-0-0-2h3----|
    pm…
  • Intro/Verse
    E|---------------|
    B|---------------|
    G|---------------|
    D|-5-3-0-3-0-0-3-|
    A|-5-3-0-3-0-0-3-|
    D|-5-3-0-3-0-0-3-|
    
    Break
    E|---------------------------------|
    B|---------------------------------|
    G|---------------------------------|
    D|-9-9-9-9-9-9-9-9-9-9-9-9-9-9-9-9-|
    A|-7-7-7-7-7-7-7-7-7-7-7-7-7-7-7-7-|
    D|---------------------------------|
    
    Chorus…
  • Drop D Tuning
    
    
    ---------------------------------------------|--------------------------------
    ---------------------------------------------|--------------------------------
    ---------------------------------------------|--------------------------------
    -5-5-7-5-5-7-5-5-7-5-5-7-5-5-7-5-5-7-5-5--3v-|--------------------------------
    -5-5-7-5-5-7-5-5-7-5-5-7-5-5-7-5-5-7-5-5--3v-|--------------------------------
    -5-5-5-5-5-5-5-5-5-5-5-5-5-5-5-5-5-5-5-5--3v-|--------------------------------…
  • Tuning: low to high - c# g# c# f# a# d#
    
    riff1 intro (guitar 1)
    |------------------------------------------------|
    |------------------------------------------------|
    |------------------------------------------------|
    |------------------------------------------------|
    |------------------------------------------------|
    |--12-10-0-0-0-0-10-0-0-0-0-10-0-0-0-0-10-0-0----|…
Наверх