Аккорды «Red Hot Chili Peppers»

Red Hot Chili Peppers
Red Hot Chili Peppers — американская рок-группа, образованная в 1983 году в Калифорнии вокалистом Энтони Кидисом, басистом Майклом Бэлзари (больше известным как Фли), гитаристом Хиллелом Словаком и барабанщиком Джеком Айронсом. В музыке сочетаются элементы альтернативного рока, фанка, панк-рока и психоделической музыки. Во всём мире продано около 85 миллионов копий альбомов группы. В первый раз группа обратила на себя внимание во время выступления в клубе «Rhythm Lounge» с песней «Out in L.A.»,… Читать полностью... Red Hot Chili Peppers — американская рок-группа, образованная в 1983 году в Калифорнии вокалистом Энтони Кидисом, басистом Майклом Бэлзари (больше известным как Фли), гитаристом Хиллелом Словаком и барабанщиком Джеком Айронсом. В музыке сочетаются элементы альтернативного рока, фанка, панк-рока и психоделической музыки. Во всём мире продано около 85 миллионов копий альбомов группы. В первый раз группа обратила на себя внимание во время выступления в клубе «Rhythm Lounge» с песней «Out in L.A.», где четвёрка сразу обрела своих первых поклонников. После группа переименовалась в «Red Hot Chili Peppers». Cпустя несколько месяцев после премьеры группа подписала контракт c EMI. В то время Словак и Айронс были связаны с другой группой «What Is This?», которая в свою очередь выгодно заключила договор с MCA. Это вынудило их покинуть группу, после чего их место заняли Клифф Мартинес (барабаны) и Джек Шерман (гитара). Надо заметить, что Джек Шерман отличался по стилю игры от «Red Hot Chili Peppers». Продюсером дебютного альбома группы «The Red Hot Chili Peppers» стал Энди Джилл. Джилл оказывал сильное давление на группу, в результате чего между ними сложились напряжённые отношения. Альбом «The Red Hot Chili Peppers» вышел 10 августа 1984 года и не имел никакого коммерческого успеха. Плохие отношения между Кидисом и Шерманом привели к увольнению гитариста. Но, к счастью, в это время в группу вернулся Словак. Продюсером второго альбома стал Джордж Клинтон. Выпущенный 16 августа 1985 альбом «Freaky Styley» тоже не был коммерчески успешным, однако, в отличие от своего предшественника, более точно отражал стиль RHCP. В это время группу покинул Клифф Мартинес, а его место занял вернувшийся в группу Джек Айронс. Продюсером третьего альбома выступил Майкл Беинхорн. Благодаря оригинальному составу группы, новый альбом «The Uplift Mofo Party Plan», вышедший 25 июня 1987 года, имел успех. Одновременно с тем Словак испытывал серьёзные проблемы с наркотиками, что привело к его смерти 25 июня 1988 года. Смерть Хиллела Словака стала огромным потрясением для группы, в результате чего Кидис уехал из города, а Джек Айронс навсегда покинул RHCP, заявив, что он «не хочет быть частью того, что убивает его друзей». Фли занялся другими проектами. Через некоторое время группа приступила к работе над новым альбомом. Для этого было необходимо найти нового гитариста и барабанщика. Через знакомых Кидис и Фли вышли на Джона Фрусчанте (John Frusciante), поразившего их своей игрой до такой степени, что вопрос о его участии в группе был мгновенно решён. Оставалось найти только ударника. Группе посоветовали обратиться к Чеду Смиту, на котором они и остановили свой выбор после прослушивания. В августе 1989 года вышел новый альбом «Mother's Milk», включавший в себя песни, в будущем ставшими хитами. Альбом был посвящён памяти Словака. В 1990 году Red Hot Chili Peppers подписали контракт с Warner Bros, а продюсером нового альбома стал Рик Рубин. На время работы над альбомом участники группы уединились в особняке. 24 сентября 1991 года вышел альбом «Blood Sugar Sex Magik», ставший одним из лучших альбомов группы. Red Hot Chili Peppers попали на обложки самых известных журналов. Во время одного из туров в Азии Джон объявляет о своём уходе. Заменой Фрусчанте стал Арик Маршалл, который не смог вписаться в коллектив. После него в группу взяли Джесси Тобиса, который также продержался недолго. В 1993 году в группу был приглашён Дэйв Наварро. Затем Red Hot Chili Peppers присупили к работе над альбомом «One Hot Minute». Альбом вышел 12 сентября 1995 года и явился коммерчески успешным, а песни «Aeroplane», «Warped» и «My Friends» стали хитами. Группа принимает участие в записи саундтреков, например «Hard Charger» к фильму Говарда Стерна, «Love Rollercoaster» к мультфильму «Beavis and Butt-Head Do America» («Бивис и Баттхед уделывают Америку») и др. В апреле 1998 Наварро покинул группу из-за творческих разногласий. В апреле 1998 Flea навестил Джона Фрусчанте и официально пригласил его обратно в группу. Впервые за шесть лет группа воссоединилась. 8 июня 1999 года вышел седьмой студийный альбом «Californication», ставший успешным сразу после своего выхода. Ещё три песни стали хитами: «Scar Tissue», «Otherside», «Californication». В 2000 году песня «Scar Tissue» была удостоена премии Грэмми в номинации Best Rock Song. В 2001 году RHCP выпустили первый DVD концерт. 9 июля 2002 года вышел восьмой альбом Red Hot Chili Peppers — «By The Way». В 2006 году вышел «Stadium Arcadium», награждённый премией Грэмми. В начале 2007 года Red Hot Chili Peppers выиграли 5 номинаций Грэмми: «Лучший Рок-альбом» («Stadium Arcadium»), «Лучшая песня» («Dani California»), «Альбом года» («Stadium Arcadium»), «Лучший клип» («Dani California»), «Лучший продюсер» (Рик Рубин). Red Hot Chili Peppers вернулись в студию, для записи нового альбома 12 октября 2009 года. По словам Чада Смита следующий альбом группы должен выйти в 2010 году. 16 декабря 2009 было официально обьявлено об уходе Фрусчанте из группы по причине занятия сольной карьерой. Самый вероятный кандидат на его место — бывший сессионный гитарист Джош Клингхоффер (англ. Josh Klinghoffer). 2 января 2010 года он официально подтвердил своё вступление в группу. Дискография The Red Hot Chili Peppers (10 августа 1984) Freaky Styley (16 августа 1985) The Uplift Mofo Party Plan (23 сентября 1987) Mother's Milk (16 августа 1989) Blood Sugar Sex Magik (24 сентября 1991) What Hits!? (1992) Out In L.A. (1994) One Hot Minute (12 сентября 1995) Californication (8 июня 1999) By The Way (9 июля 2002) Live In Hyde Park (2004) Greatest Hits (2003) Stadium Arcadium (9 мая 2006) I'm With You (29 августа 2011) Скрыть...
Популярные аккорды Red Hot Chili Peppers:
алфавиту | просмотрам | случайно
  • Intro: (Guitar only, Bass Comes in at 0:16)
    G|-------------------------------------------------------------------------|
    D|-------------------------------------------------------------------------|
    A|77777777777777-56-77777777777777-56-77777777777777-56-77777777777777-56--|
    E|-------------------------------------------------------------------------|
    
    Second…
  • Intro and verse:
    
                    D                           e7
    E|-2-2-2---2--2-2--2-2--2-2----3-3-3---3--3-3--3-3--3-3-|
    H|-3-3-3---3--3-3--3-3--3-3----3-3-3---3--3-3--3-3--3-3-|
    G|-2-2-2---2--2-2--2-2--2-2----4-4-4---4--4-4--4-4--4-4-|
    D|-0-0-0---0--0-0--0-0--0-0----0-0-0---0--0-0--0-0--0-0-|
    A|------------------------------------------------------|
    E|------------------------------------------------------|
    
    Chorus:…
  • Intro
    e--7---X-7-7---X-7--|--3---3-3-3-X-X--|--5---X-5-5---X-5--|
    B--7---X-7-7---X-7--|--3---3-3-3-X-X--|--5---X-5-5---X-5--|
    G--7---X-7-7---X-7--|--4---4-4-4-X-X--|--6---X-6-6---X-6--|
    D--9---X-9-9---X-9--|--5---5-5-5-X-X--|--7---X-7-7---X-7--|
    A-------------------|-----------------|-------------------|
    E-------------------|-----------------|-------------------|
    
    e-----------------------|T
    B-----------------------|O
    G--6-----7-----6--X--X--|T
    D--8-----9-----8--X--X--|A
    A-----------------------|L
    E-----------------------|2x
    
    Verse
    e--7---X-7-7---X-7--|--3---3-3-3-X-X--|--5---X-5-5---X-5--|
    B--7---X-7-7---X-7--|--3---3-3-3-X-X--|--5---X-5-5---X-5--|
    G--7---X-7-7---X-7--|--4---4-4-4-X-X--|--6---X-6-6---X-6--|
    D--9---X-9-9---X-9--|--5---5-5-5-X-X--|--7---X-7-7---X-7--|
    A-------------------|-----------------|-------------------|
    E-------------------|-----------------|-------------------|
    
    e-----------------------|T
    B-----------------------|O
    G--6-----7-----6--X--X--|T
    D--8-----9-----8--X--X--|A
    A-----------------------|L
    E-----------------------|4x
    
    Pre-Chorus
    e-------------------------|--------------------|-------2-2---X-2---|
    B--3----X--3--3----X---3--|---3-----5-----3----|-2---X-2-2---X-2---|
    G--4----X--4--4----X---4--|---4-----6-----4----|-3---X-3-3---X-3---|
    D--5----X--5--5----X---5--|---5-----5-----5----|-4---X-4-4---X-4---|
    A-------------------------|--------------------|-------------------|
    E-------------------------|--------------------|-------------------|
    
    e---0----0--0--0--0--|-------------------|--------------------|
    B---2----2--2--2--2--|--3---X-3-3---X-3--|---3-----5-----3----|
    G---3----3--3--3--3--|--4---X-4-4---X-4--|---4-----6-----4----|
    D---4----4--4--4--4--|--5---X-5-5---X-5--|---5-----5-----5----|
    A--------------------|-------------------|--------------------|
    E--------------------|-------------------|--------------------|
    
    e--------2-2-2-2-|--0----0-0------0-0---|
    B--2---X-2-2-2-2-|--2----2-2------2-2---|
    G--3---X-3-3-3-3-|--3----3-3------3-3---|
    D--4---X-4-4-4-4-|--4----4-4------4-4---|
    A----------------|----------------------|
    E----------------|----------------------|
    
    Chorus
    e---7--7--7----7--7--|-14--14--14----14--14|-12--12--12----12--12--|
    B---7--7--7----7--7--|-15--15--15----15--15|-14--14--14----14--14--|
    G---7--7--7----7--7--|-14--14--14----14--14|-14--14--14----14--14--|
    D--------------------|--0---0---0-----0---0|-----------------------|
    A--------------------|---------------------|-----------------------|
    E--------------------|---------------------|-----------------------|
    
    e---15--15--15-----15--15--|
    B---17--17--17-----17--17--|
    G---16--16--16-----16--16--|
    D--------------------------|
    A--------------------------|
    E--------------------------|
    
    e---7--7--7----7--7--|-14--14--14----14--14|-12--12--12----12--12--|
    B---7--7--7----7--7--|-15--15--15----15--15|-14--14--14----14--14--|
    G---7--7--7----7--7--|-14--14--14----14--14|-14--14--14----14--14--|
    D--------------------|--0---0---0-----0---0|-----------------------|
    A--------------------|---------------------|-----------------------|
    E--------------------|---------------------|-----------------------|
    
    e---9---9---9---9---9---9----|
    B---11--11--11--11--11--11---|
    G---9---9---9---9---9---9----|
    D----------------------------|
    A----------------------------|
    E----------------------------|
    
    e---7--7--7----7--7--|-14--14--14----14--14|-12--12--12----12--12--|
    B---7--7--7----7--7--|-15--15--15----15--15|-14--14--14----14--14--|
    G---7--7--7----7--7--|-14--14--14----14--14|-14--14--14----14--14--|
    D--------------------|--0---0---0-----0---0|-----------------------|
    A--------------------|---------------------|-----------------------|
    E--------------------|---------------------|-----------------------|
    
    e--15--15--15----15--15---|
    B--17--17--17----17--17---|
    G--16--16--16----16--16---|
    D-------------------------|
    A-------------------------|
    E-------------------------|
    
    e---7--7--7----7--7--|-14--14--14----14--14|-12-----9------|
    B---7--7--7----7--7--|-15--15--15----15--15|-14-----11-----|
    G---7--7--7----7--7--|-14--14--14----14--14|-14-----9------|
    D--------------------|--0---0---0-----0---0|--------11-----|
    A--------------------|---------------------|---------------|
    E--------------------|---------------------|---------------|
    
    
    
    
    
    
    
    Verse
    e--7---X-7-7---X-7--|--3---3-3-3-X-X--|--5---X-5-5---X-5--|
    B--7---X-7-7---X-7--|--3---3-3-3-X-X--|--5---X-5-5---X-5--|
    G--7---X-7-7---X-7--|--4---4-4-4-X-X--|--6---X-6-6---X-6--|
    D--9---X-9-9---X-9--|--5---5-5-5-X-X--|--7---X-7-7---X-7--|
    A-------------------|-----------------|-------------------|
    E-------------------|-----------------|-------------------|
    
    e-----------------------|T
    B-----------------------|O
    G--6-----7-----6--X--X--|T
    D--8-----9-----8--X--X--|A
    A-----------------------|L
    E-----------------------|4x
    
    Pre-Chorus
    e-------------------------|--------------------|-------2-2---X-2---|
    B--3----X--3--3----X---3--|---3-----5-----3----|-2---X-2-2---X-2---|
    G--4----X--4--4----X---4--|---4-----6-----4----|-3---X-3-3---X-3---|
    D--5----X--5--5----X---5--|---5-----5-----5----|-4---X-4-4---X-4---|
    A-------------------------|--------------------|-------------------|
    E-------------------------|--------------------|-------------------|
    
    e---0----0--0--0--0--|-------------------|--------------------|
    B---2----2--2--2--2--|--3---X-3-3---X-3--|---3-----5-----3----|
    G---3----3--3--3--3--|--4---X-4-4---X-4--|---4-----6-----4----|
    D---4----4--4--4--4--|--5---X-5-5---X-5--|---5-----5-----5----|
    A--------------------|-------------------|--------------------|
    E--------------------|-------------------|--------------------|
    
    e----------2--2-----X--2--|---0----0--0--0--0---|
    B---2---X--2--2-----X--2--|---2----2--2--2--2---|
    G---3---X--3--3-----X--3--|---3----3--3--3--3---|
    D---4---X--4--4-----X--4--|---4----4--4--4--4---|
    A-------------------------|---------------------|
    E-------------------------|---------------------|
    
    Pre-Chorus
    e-------------------------|--------------------|-------2-2---X-2---|
    B--3----X--3--3----X---3--|---3-----5-----3----|-2---X-2-2---X-2---|
    G--4----X--4--4----X---4--|---4-----6-----4----|-3---X-3-3---X-3---|
    D--5----X--5--5----X---5--|---5-----5-----5----|-4---X-4-4---X-4---|
    A-------------------------|--------------------|-------------------|
    E-------------------------|--------------------|-------------------|
    
    e---0----0--0--0--0--|-------------------|--------------------|
    B---2----2--2--2--2--|--3---X-3-3---X-3--|---3-----5-----3----|
    G---3----3--3--3--3--|--4---X-4-4---X-4--|---4-----6-----4----|
    D---4----4--4--4--4--|--5---X-5-5---X-5--|---5-----5-----5----|
    A--------------------|-------------------|--------------------|
    E--------------------|-------------------|--------------------|
    
    
    
    
    
    e--------2-2-2-2-|--0----0-0------0-0---|
    B--2---X-2-2-2-2-|--2----2-2------2-2---|
    G--3---X-3-3-3-3-|--3----3-3------3-3---|
    D--4---X-4-4-4-4-|--4----4-4------4-4---|
    A----------------|----------------------|
    E----------------|----------------------|
    
    Chorus
    e---7--7--7----7--7--|-14--14--14----14--14|-12--12--12----12--12--|
    B---7--7--7----7--7--|-15--15--15----15--15|-14--14--14----14--14--|
    G---7--7--7----7--7--|-14--14--14----14--14|-14--14--14----14--14--|
    D--------------------|--0---0---0-----0---0|-----------------------|
    A--------------------|---------------------|-----------------------|
    E--------------------|---------------------|-----------------------|
    
    e---15--15--15-----15--15--|
    B---17--17--17-----17--17--|
    G---16--16--16-----16--16--|
    D--------------------------|
    A--------------------------|
    E--------------------------|
    
    e---7--7--7----7--7--|-14--14--14----14--14|-12--12--12----12--12--|
    B---7--7--7----7--7--|-15--15--15----15--15|-14--14--14----14--14--|
    G---7--7--7----7--7--|-14--14--14----14--14|-14--14--14----14--14--|
    D--------------------|--0---0---0-----0---0|-----------------------|
    A--------------------|---------------------|-----------------------|
    E--------------------|---------------------|-----------------------|
    
    e---9---9---9---9---9---9----|
    B---11--11--11--11--11--11---|
    G---9---9---9---9---9---9----|
    D----------------------------|
    A----------------------------|
    E----------------------------|
    
    e---7--7--7----7--7--|-14--14--14----14--14|-12--12--12----12--12--|
    B---7--7--7----7--7--|-15--15--15----15--15|-14--14--14----14--14--|
    G---7--7--7----7--7--|-14--14--14----14--14|-14--14--14----14--14--|
    D--------------------|--0---0---0-----0---0|-----------------------|
    A--------------------|---------------------|-----------------------|
    E--------------------|---------------------|-----------------------|
    
    e--15--15--15----15--15---|
    B--17--17--17----17--17---|
    G--16--16--16----16--16---|
    D-------------------------|
    A-------------------------|
    E-------------------------|
    
    e---7--7--7----7--7--|-14--14--14----14--14|-12-----9------|
    B---7--7--7----7--7--|-15--15--15----15--15|-14-----11-----|
    G---7--7--7----7--7--|-14--14--14----14--14|-14-----9------|
    D--------------------|--0---0---0-----0---0|--------11-----|
    A--------------------|---------------------|---------------|
    E--------------------|---------------------|---------------|
    Interlude
    e--7---X-7-7---X-7--|--3---3-3-3-X-X--|--5---X-5-5---X-5--|
    B--7---X-7-7---X-7--|--3---3-3-3-X-X--|--5---X-5-5---X-5--|
    G--7---X-7-7---X-7--|--4---4-4-4-X-X--|--6---X-6-6---X-6--|
    D--9---X-9-9---X-9--|--5---5-5-5-X-X--|--7---X-7-7---X-7--|
    A-------------------|-----------------|-------------------|
    E-------------------|-----------------|-------------------|
    
    e-----------------------|T
    B-----------------------|O
    G--6-----7-----6--X--X--|T
    D--8-----9-----8--X--X--|A
    A-----------------------|L
    E-----------------------|2x
    
    Verse
    e--7---X-7-7---X-7--|--3---3-3-3-X-X--|--5---X-5-5---X-5--|
    B--7---X-7-7---X-7--|--3---3-3-3-X-X--|--5---X-5-5---X-5--|
    G--7---X-7-7---X-7--|--4---4-4-4-X-X--|--6---X-6-6---X-6--|
    D--9---X-9-9---X-9--|--5---5-5-5-X-X--|--7---X-7-7---X-7--|
    A-------------------|-----------------|-------------------|
    E-------------------|-----------------|-------------------|
    
    e-----------------------|T
    B-----------------------|O
    G--6-----7-----6--X--X--|T
    D--8-----9-----8--X--X--|A
    A-----------------------|L
    E-----------------------|2x
    
    Chorus
    e--------7--------|----------14-----------|----------12-----------|
    B------7---7------|-------15----15--------|-------14----14--------|
    G----7-------7----|----14----------14-----|----14----------14-----|
    D--9-----------9--|-16----------------16--|-14----------------14--|
    A-----------------|-----------------------|-----------------------|
    E-----------------|-----------------------|-----------------------|
    
    e-----------15-----------|-------7--------|----------14-----------|
    B--------17----17--------|-----7---7------|-------15----15--------|
    G-----16----------16-----|---7-------7----|----14----------14-----|
    D--17----------------17--|-9-----------9--|-16----------------16--|
    A------------------------|----------------|-----------------------|
    E------------------------|----------------|-----------------------|
    
    e-----------12-----------|----------12-----------|-------7--------|
    B--------14----14--------|-------14----14--------|-----7---7------|
    G-----14----------14-----|----15----------15-----|---7-------7----|
    D--14----------------14--|-16----------------16--|-9-----------9--|
    A------------------------|-----------------------|----------------|
    E------------------------|-----------------------|----------------|
    
    
    
    
    
    e-----------14-----------|----------12-----------|
    B--------15----15--------|-------14----14--------|
    G-----14----------14-----|----14----------14-----|
    D--16----------------16--|-14----------------14--|
    A------------------------|-----------------------|
    E------------------------|-----------------------|
    
    e-----------15-----------|-------7--------|----------14-----------|
    B--------17----17--------|-----7---7------|-------15----15--------|
    G-----16----------16-----|---7-------7----|----14----------14-----|
    D--17----------------17--|-9-----------9--|-16----------------16--|
    A------------------------|----------------|-----------------------|
    E------------------------|----------------|-----------------------|
    
    e---12-----9----|---------------|T
    B---14-----11---|---------------|O
    G---14-----9----|---------------|T
    D---------------|---------------|A
    A---------------|---------------|L
    E---------------|---------------|2x
    
    e----(9)------||
    B----(11)-----||
    G----(9)------||
    D-------------||
    A-------------||
    E-------------||…
  • Intro:
    e:----------------------------------|
    B:----------------------------------|
    G:------2-----4b54p2-------------2--|
    D:---2----------------------2h4-----|
    A:0--------0----------0--0----------|
    E:----------------------------------|
    
    
    
    e:-----------------------------------------|
    B:------------------------------5----------|
    G:-------2-----------2-----4/6-----64--2--|
    D:----2--------2---------------------------|
    A:-0--------0-----0-----0------------------|
    E:-----------------------------------------|
    
    
    
    e:-----------------------------------|--------------------------------|
    B:-----------------------------------|--------------------------------|
    G:--------2-----4b5p2-------------2--|--------2-----------------------|
    D:-----2---------------------2h4-----|-----2--------2-----2-----0-----|
    A:--0--------0---------0--0----------|--0--------0-----0--------------|
    E:-----------------------------------|-----------------------3-----3--|
    
    
    
    e:-----------------------------------|
    B:-----------------------------------|
    G:--------2-----4b5p2-------------2--|
    D:-----2---------------------2h4-----|
    A:--0--------0---------0--0----------|
    E:-----------------------------------|
    
    
    
    e:----------------------------------------|
    B:-------------------------------5--------|
    G:--------2-----------------4/6-----6p4p2-|
    D:-----2--------2-----2-------------------|
    A:--0--------0-----0-----0----------------|
    E:----------------------------------------|
    
    
    
    e:----------------------------------|
    B:----------------------------------|
    G:--------2-----4b5p2-------------2-|
    D:-----2---------------------2h4----|
    A:--0--------0---------0--0---------|
    E:----------------------------------|
    
    
    Ok,…
  • Intro
    G|-----------------------|
    D|-----------------------|
    A|-----------------------|
    E|--777777777777777777777
       N....................
    
    Verse
    Repeat x
    G|-----7-9-------7-9---------7-9-------7-9-|
    D|-----------------------------------------|
    A|-7-7-----7-7-7-----7-7-7-5-----5-5-5-----|
    E|-----------------------------------------|…
  • part1
    E|--5-5-5/-----8-------118-118-118-118-118-|
    B|--5-5-5/-----8---------------------------|
    G|-------------10^-------------------------|
    D|-----------------------------------------|
    A|-----------------------------------------|
    E|-----------------------------------------|
    
    part2
    E|-5-5-5/-----8---|
    B|-5-5-5/-----8---|
    G|------------10^-|
    D|----------------|
    A|----------------|
    E|----------------|
    
    alright...so…
  • N.C.        D                 A
    4/4
     Gtrs I, II
    E|---------||----------------------------------------|
    B|---------||o---------------------------------------|
    G|---------||--12s11-9--9----------------9-(9)-9-----|
    D|---------||---0----0-(0)-0-9-7--9s11---9-(9)-9-----|
    A|---------||o---------------0-0--0----0-0-(0)-0-9-7-|
    E|---------||------------------------------------0-0-|…
  • The whole song is just a repeating of this riff.
    
    Key:
    (7)=notes played after the first time through the riff.
    
    E|-------------------------------------|
    B|-------------------------------------|
    G|-------------------------------------|
    D|--------7-7---10-9-7-----------------|
    A|--7-7-7--------------7(7)(7)--5-5-5--|
    E|-------------------------------------|
    
    Version…
  • Intro:
    
    G|--------------------5-----------------------|
    D|-----------5------7---0-3-5-7-------5-7p5---|
    A|---------7---5------------------5p7-------7-|
    E|---5----------------------------------------|
    
    Main Verse:
    
    X3
    
    G|--------------------------5-----------------------------|
    D|--------------5---------7---0-3-3-3h3-5-7-7-7-----5-7-5-|
    A|------------7---5-5-5h5-----------------------5h7-------|
    E|---5-5-5h5----------------------------------------------|
    
    G|--------------------------5-------------------------------|
    D|--------------5---------7---0-3-3-3h3-5-7-7-7-7-7-7-7-7-7-|
    A|------------7---5-5-5h5-----------------------------------|
    E|---5-5-5h5------------------------------------------------|
    
    Chorus:
    
    X2
    
    G|-----9----------------------------------|
    D|-------10-------10---------5--------3---|
    A|----------10-10----10----5--------3-----|
    E|---8-------------------3-----3--1-----1-|
    
    G|-----9----------------------------------|
    D|-------10-------10-------5------3-------|
    A|----------10-10----10------5------3---3-|
    E|---8-------------------3-----3------1---|
    
    G|-------------4------------------------4-5-4----------------|
    D|-------7---5---5----------3-----------------5----------3---|
    A|-----7-----------5------3---3----7-7----------5------3-----|
    E|---5---------------3--1--------5----------------3--1-----1-|
    
    Play…
  • First solo:
    -----------------------------------------------------------------------------|
    ---13--10~------10--8~-------8--10~---10--12--13~----------------------------|
    -----------------------------------------------------------------------------|
    -----------------------------------------------------------------------------|
    -----------------------------------------------------------------------------|
    -----------------------------------------------------------------------------|
    
    Second…
  • С Минор!!!
     |       |       |       |
    ---------------------|
    |4-4-4-4-4-4-4-4-4-4-4-4-4-4-4-4-|
    ---------------------|
    ---------------------|
    ---------------------|
    ---------------------|
    
     |       |       |       |…
  • E|----------------|------------------|----------------------11-|
    B|-11-10--8-------|------------------|----11----10----8--8-----|
    G|-----------8--8-|------------------|-------------------------|
    D|----------------|--10--8----8------|-------------------------|
    A|----------------|------------------|-------------------------|
    E|----------------|------------------|-------------------------|
    
    E|-8h11p8----8--11p8~~-|---------------------|--------------|
    B|--------11-----------|-11----10----8-------|--------------|
    G|---------------------|----------------8--8-|--------------|
    D|---------------------|---------------------|-8--8----8h10-|
    A|---------------------|---------------------|--------------|
    E|---------------------|---------------------|--------------|
    
    E|-------------------11-|-------------|
    B|-11----10----8--8-----|-11p8--------|
    G|----------------------|-------10--8-|
    D|----------------------|-------------|
    A|----------------------|-------------|
    E|----------------------|-------------|…
  • Intro
      Gm              Cm                             Gm
    g|----------------|---------------------------------|--------=-|
    d|----------------|---------------------------------|--------=-|
    a|----------------|--------------------------=------|----------|
    e|-15-5--6--------|--------8------0------1////10----|--15-5--6-|…
  • Transcription: Bass Tab
    Tuning: Standard E A D G
    
    Key
     / = Slide Up To Fret
      = Slide Down To Fret
     h = Hammer On
     p = Pull Off
     X = Muted Note
     > = Let Ring
     I) = Bend Up
     U) = Bend Down
     T = Tap (wack string…
  • INTRO/VERSE:
    
        C    Am    Fm     G
    
    e|--0--|-----|-----|--3--|
    B|--1--|--1--|-----|--3--|
    G|--0--|--2--|--2--|--0--|
    D|--2--|--2--|--3--|--0--|
    A|--3--|--0--|--3--|--2--|
    E|-----|-----|--1--|--3--|
    
    
    OTHER BIT: (Bridge)…
  • (0:10)
    E-------------------------------
    B---------------------------------------
    G--6/--2--4/6--(2)--6/--(2)----2--------
    D----------------------------2----------
    A---------------------------------------
    E---------------------------------------
    
    (0:31)
    E--2--2--2--4--5--0---------------------
    B--------------------2------------------
    G-----------------------4/--6-----------
    D---------------------------------------
    A---------------------------------------
    E---------------------------------------
    
    (0:41)
    E--2--2--2--4--5--7--5--4--2--4--5--0---
    B--------------------------------------2
    G---------------------------------------
    D---------------------------------------
    A---------------------------------------
    E---------------------------------------
    
    (0:51)
    E---------------------------------------
    B---------------------------------------
    G--4/--6--2--4------2------------------
    D---------------------------------------
    A---------------------------------------
    E---------------------------------------
    
    (1:01)
    E---------------------------------------
    B---------------------------------------
    G--4/--6--2----------------------------
    D---------------------------------------
    A---------------------------------------
    E---------------------------------------
    
    (1:06)
    E---------------------------------------
    B--5--5--5--5--5--5--5--5--5--5--5--5---(triplets)
    G---------------------------------------
    D---------------------------------------
    A---------------------------------------
    E---------------------------------------
    
    (1:11)
    E---------------------------------------
    B---------------------------------------
    G--6--4/--6----2------------------------
    D-------------------(4)-----------------
    A---------------------------------------
    E---------------------------------------
    
    (1:31)
    E--2--2--2--4--5--0---------------------
    B--------------------2------------------
    G-----------------------4/--6-----------
    D---------------------------------------
    A---------------------------------------
    E---------------------------------------
    
    (1:41)
    E--2--2--2--4--5--7--5--4--2--4--5--0---
    B--------------------------------------2
    G---------------------------------------
    D---------------------------------------
    A---------------------------------------
    E---------------------------------------
    
    (1:51)
    E---------------------------------------
    B-------------5--2-----7--3-----5--2----
    G--4/--6--2--------2--------2--------2-
    D---------------------------------------
    A---------------------------------------
    E---------------------------------------
    
    (2:01)
    E---------------------------------------
    B---------------------------------------
    G--4/--6--2----------------------------
    D---------------------------------------
    A---------------------------------------
    E---------------------------------------
    
    (2:06)
    E---------------------------------------
    B-5--5--5--5--5--5--5--5--5--5--5--5----
    G---------------------------------------
    D---------------------------------------
    A---------------------------------------
    E---------------------------------------
    
    (2:12)
    E---------------------------5-----------
    B------------------7--3--------5--------
    G--4/--6--2--(4)--------2--------2-----
    D---------------------------------------
    A---------------------------------------
    E---------------------------------------
    
    (2:22)
    E---------------------------------------
    B---------------------------------------
    G--4/--6--2----------------------------
    D---------------------------------------
    A---------------------------------------
    E---------------------------------------
    
    (2:27)
    E---------------------------------------
    B--5--5--5--5--5--5--5--5--5--5--5--5---
    G---------------------------------------
    D---------------------------------------
    A---------------------------------------
    E---------------------------------------
    
    (2:32)
    E---------------------------------------
    B---------------------------------------
    G--6(b)---------------------------------
    D---------------------------------------
    A---------------------------------------
    E---------------------------------------…
  • C     D   Bm       Em
    I--- got dosed by you and
    C   D        Bm      Em
    closer than most to you and
     C     D6      Bm6      Em
    what am I supposed to do and
    C
    
        G            Em
    Take it away, I never had it anyway.
    C…
  • G|---------------------------------------------------------|
    D|----10-12(h)14-10(h)12-----------------9-10(h)12-9(h)10--|
    A|-12--------------------10(h)12-XXXX-12-------------------|
    E|---------------------------------------------------------|
    
    E|------------|
    B|------------|
    G|9(h)10-XXXX-|
    D|------------|
    
    Verse:…
  • Intro:
        Am/G     G7      Em     F     Am      G     Em      F
    E|-----3-------1---------------------0---------------------0-|
    B|---1-------0--------0------1--------------3------0---------|
    G|------------------0--------------2------0--------------2-2-|
    D|-------------------------3---------------------2-----------|
    A|-0-----------------------------0---------------------------|
    E|---------3------0------1--------------3------0------1------|
    
    Verse:…
  • Intro
    
    w/ bar					(slowly depress bar)
    ---------------9-7----8-----9---10--6------------------------------------------------------|
    -----5/-7--------9---10---11--12--8--------------------------------------------------------|
    -----7/-9----------------------------------------------------------------------------------|
    -----------------------------------------------0-------------------------------------------|
    -------------------------------------------------------------------------------------------|
    -x-----------------------------------------------------------------------------------------|
    
    
    Verse
    --14-------------------------14-------7-----7------------------------------------------|
    --15-------------------------15------10----9-------------------------------------------|
    --14-------------------------14-------9-----9------------------------------------------|
    --x------7-----9--------------x--------------------------------------------------------|
    --14-------------------------14--------------------------------------------------------|
    ---------------------------------------------------------------------------------------|
    
    Chorus
    ---------------------------------------------------------------------------------------|
    -----------------------7------------------7---------------7------11---11---11-----7----|
    -----------------------7------------------7---------------7-------9-----9----9------7--|
    -------9-------9-------------9----9----------9-----9-----------10---10---10------------|
    ---------------------------------------------------------------------------------------|
    ---------------------------------------------------------------------------------------|
    
    
    Bridge
    
    -7----7-------4--------6------------------------------------------------------------|
    -7----6-------3--------5------------------------------------------------------------|
    -7----7-------4--------6------------------------------------------------------------|
    ------------------------------------------------------------------------------------|
    ------------------------------------------------------------------------------------|
    ------------------------------------------------------------------------------------|
    
    
    Solo:		(there…
  • Verse 1
    
    G|-------------------------------------
    D|------12----------------------------
    A|------------------------3--5---------
    E |--x0-------10----0---5------4--2----
    
    G|--------------------------------------
    D|------12-----------------------------
    A|-----------------------4--3-----------
    E…
  • Bass
    Bass figure 1:
    G|-----------------------|-----------------------|
    D|-----4--4--4--4---4--4-|-----4--4--4--4---4--4-|
    A|-----------------------|-----------------------|
    E|-2-x------------2------|-2-x------------2------|
    
    Chorus:
    G|--------------------------|-------------------------|
    D|-------2--------7-------9-|-------2--------7------9-|
    A|--------------------------|-------------------------|
    E|-2--2----2--5-5----7-7----|-2--2----2--5-5----7-7---|
    
    Interlude:
    G|---------------------------------|
    D|---------------------------------|
    A|---------------------------------|
    E|-5h7-5h7-5h7-5h7-5h7-5h7-5h7-5h7-|
    
    E|---------------------------------|
    B|---------------------------------|
    G|-0h2-0h2-0h2-0h2-0h2-0h2-0h2-0h2-|
    D|---------------------------------|…
  • Intro
    e------------------10-10---------------------8-8---|
    B--8-11-----------------------8-11-----------------|
    G-------10--8-7--------------------10--8-7---------|
    D--------------------------------------------------|
    A--------------------------------------------------|
    E--------------------------------------------------|
    
    e---------------------------------------------|
    B--8-11------------10-10---10^-8----6/8-6-----|
    G-------10--8-7----------------------------7--|
    D---------------------------------------------|
    A---------------------------------------------|
    E---------------------------------------------|
    
    Verse…
  • Intro
    
    With Wah (+ = Treble)
    
      -        +           +           +
    e----------6-----------6-----------6-|--------|---------6---------6-|
    B----------6-----------6-----------6-|--------|---------6---------6-|
    G------------------------------------|--------|---------------------|
    D------------------------------------|--------|---------------------|
    A------------------------------------|--------|---------------------|
    E-3-3-3-3-----3-3-3-3-----3-3-3-3----|-0-1-2--|-3-3-3-3----3-3-3-3--|…
  • Intro
    E|--3-----| R-   e-----------------------|------0-------|   -R-|
    B|--3h5---| E    B-----5-----------3-----|------1-------|    E-|
    G|--5-----| P    G-----5-----------4-----|------2-------|    P-|
    D|--------| E    D-----5-----------3-----|--------------|…
  • Bass fig.1
                    P                         P
      T    T  P P   P      P  T  T    T  P P  P      P  P
    G--------------10h12--12-----------------10h12--12-10----
    D--------12-X--10--------10---------12-X-10--------------
    A--------------------------------------------------------
    E-8/10-X---------------------8/10-X----------------------
    
    Bass…
  • h-hammer-on
    p-pull-of
    /-slide
    b-bend
    p.m.-palm mute
    
    intro
    e-|------------------------------------|---------------------------------|
    B-|----12-----12--x--x--x--------------|-12-----12-----------------------|
    G-|.---12-----12--x--x--x----14p12-----|-12-----12--------12---------12--|
    D-|.---12-----12--x--x--x-----------14-|-12-----12--------12---------12--|
    A-|-x------x------x--x--x--------------|-----x------12h14-----12h14------|
    E-|------------------------------------|---------------------------------|
    
    e-|------------------------------------|-15-15-15-15-15-15-15-15-15-15-15|
    B-|--x--12----12--x--x--x------------x-|-15-15-15-15-15-15-15-15-15-15-15|
    G-|--x--12----12--x--x--x--14p12-----x-|--------------------------------.|
    D-|--x-----14-----x--x--x--------14----|--------------------------------.|
    A-|---------------x--x--x--------------|---------------------------------|
    E-|------------------------------------|---------------------------------|
    
    rhythm…
  • intro& most of the song
    
    G|----------------------|
    D|----------------------|
    A|-0-0-0-0------3-3-3-3-|
    E|----------------------|
    
    then play this
    G|-------------------------|
    D|-------------------------|
    A|-0----3---0--0---0-0-0-0-|
    E|-------------------------|
    
    chorus
    this…
  • Verse:(Very Fast)                     Pre-Chorus:(Fast)
    E|-------------------------------| E|-------------------------|
    B|-------------------------------| B|-------------------------|
    G|------3-3-3---3-3-3---3-3-3---5| G|4-4-4-4-4-4-4-4-7-x-7-x-7|
    D|5-5-5-3-3-3---3-3-3---3-3-3---5|…
  • Intro: With Wah-Wah
    
    E|--x---------------------------|------------x--x--x------------------|
    B|--x----------x----------------|------------x--x--x------------------|
    G|----------x--x----------------|-----x--x---x--x--x------------------|
    D|----------x------x--5--5--5b--|--x------------------x--x--0--2~~~~--|
    A|------x-----------------------|-------------------------------------|
    E|------x-----------------------|-------------------------------------|
    
    E|--x-----------x--x----------------------|-----------x--x------------------|
    B|--x-----------x--x----------------------|-----------x--x--x---------------|
    G|--------------x--x----------------------|--x--------x--x------------------|
    D|-----x--x--x--------x--x--x--x--0-tr-2--|-----x--x-----------x--5--5--5b--|
    A|----------------------------------------|---------------------------------|
    E|----------------------------------------|---------------------------------|
    
    E|--------------x--x------------------|----------------------------|
    B|--------------x--x------------------|----------------------------|
    G|--------------x--x------------------|-----x--x-------------------|
    D|--x--x-----------------------------|--x--------x----x-5--5--5b--|
    A|---------------------4--5---7-~~~~--|----------------------------|
    E|------------------------------------|----------------------------|
    
    E|------------------------------------------------------|
    B|------------------------------------------------------|
    G|------------------------------------------------------|
    D|--x--x---x--x------x--x-------------------------------|
    A|-------------------------5--5--5--5-------------------|
    E|------------------------------------------------------|
    
    Fig.1
    
    E|--7--7----7--7-----x--7----7-----7--7----7----7--7----x--9--7--------|
    B|--8--7----7--7-----x--8----8-----8--7----8----8--7----x--9--7--------|
    G|--7--7----7--7-----x--7----7-----7--7----7----7--7----x--9--7--------|
    D|--9--9----9--9-----x--9----9-----9--9----9----9--9--------------------|
    A|--7--7----7--7-----x--7----7-----7--7----7----7--7--------------------|
    E|----------------------------------------------------------------------|
    x2Ѕ
    
    E|------------------------------------------------------|
    B|------------------------------------------------------|
    G|------------------------------------------------------|
    D|------------------------------------------------------|
    A|--5--5--5--5------------------------------------------|
    E|------------------------------------------------------|
    
    Chorus:
    
    E|---------------------------------------------------------|
    B|--11-/--12-----------------------------------------------|
    G|--9--/--10----10----12~~----x--x--3--3b------------------|
    D|---------------------------------------------5--4---3-b--|
    A|---------------------------------------------------------|
    E|---------------------------------------------------------|…
  • Intro:
    G|-----------------|----------------------|--------------------|
    D|-----------------|----------------------|--------------------|
    A|-5----5--4----4--|-------------------7--|-5----5--4--4-------|
    E|-----------------|-3-----3--5--5-5h7----|-----------------7--|
    
    G|--------------------|----------------|-----------------------|
    D|----------9--9------|----------------|-----------------------|
    A|--------9--9------4-|-5----5--4----4-|------------------7/97-|
    E|-(7)------------7---|----------------|-3-----3-3/5--5h7------|
    
    G|---------------------|--------------|
    D|---------------------|--------9-----|
    A|-5----5--4--4--7-----|---9----------|
    E|------------------7--|--------------|
    
    1st…
  • Bass Intro
    Then the guitar breaks in with this rhythm:
    
        D5    F5    D5              F5    D5
    E|--------------------------------------|
    B|--------------------------------------|
    G|--7--7--10----7---7-----7--7--10----7-|
    D|--7--7--10----7---7-----7--7--10----7-|
    A|--5--5---8----5---5-----5--5---8----5-|
    E|--------------------------------------|…
  • flea w/fuzz pedal
        E5
    e|---------------|
    B|---------------|
    G|---------------|
    D|-2-(2)---------|
    A|-------2-2-2-2-|
    E|-0-(0)-0-0-0-0-|
    
        flea
        E5
    e|-------------------------------------------------------------|
    B|-------------------------------------------------------------|
    G|-------------------------------------------------------------|
    D|-12h14-14-14-12h14-14-14-12h14-14-14-12h14-14-12-------------|
    A|-------------------------------------------------14-13-12-10-|
    E|-------------------------------------------------------------|…
  • 1st guitar:
    
    E|-------------------------------------------------------------|
    B|-------------------------------------------------------------|
    G|-------------------------------------------------------------|
    D|-2--x-x-x-x--2--x-x-x-x--2--2--2--x-x-x--x--2--x--x--x--2--2-|
    A|-2--x-x-x-x--2--x-x-x-x--2--2--2--x-x-x--x--2--x--x--x--2--2-|
    E|-0--x-x-x-x--0--x-x-x-x--0--0--0--x-x-x--x--0--x--x--x--0--0-|
    
    
    2nd…
  • G            Em          G            Em
     4/4
      Gtr I
    E|-^10--------|-^7--------|-^10--------|-^7-|
    B|-^12--------|-^8--------|-^12--------|-^8-|
    G|-^-0--------|-^0--------|-^-0--------|-^0-|
    D|-^-0--------|-----------|-^-0--------|----|
    A|------------|-----------|------------|----|
    E|------------|-^0--------|------------|-^0-|…
  • E     B     C#m   G#m    A
    e|---7-----7------4-----4-----5-|
    B|---9-----7------5-----4-----5-|
    G|---9-----8------6-----4-----6-|
    D|---9-----9------6-----6-----7-|
    A|---7-----9------4-----6-----7-|
    E|---x-----7------x-----4-----5-|
    
    The…
  • Вступление на басу
    1|-17-17-17-17-17-17-17-17-------------------------------------|
    2|-15-15-15-15-15-15-15-15--17-17-17-17-17-17-17-17--14-14-14--|
    3|--------------15-15-15-15-15-15-15-15--12-12-12-12-12-12-12--|
    4|-------------------------------------------------------------|
    
    1|----------------|
    2|-14-14-14-14-14-|
    3|-12-------------|
    4|----------------|
    
    Вместе…
  • e-----------------
    B-----------------
    G-77-7-7-7-777-777   PLAY THAT LICK 4 TIMES.
    D-----------------
    A-----------------
    E-----------------
    w/heavy distortion=guitar#2
    e----------------
    B----------------
    G----------------
    D----------------…
  • Bass
    Moderately funk
    
    Bass figure 1:
    G|-------------------|------------------|------------------|
    D|-------------------|------------------|------------------|
    A|---------------x-2-|------------------|--------------x-2-|
    E|-0--x-0--x-3-------|-0--x-0--x-5--x-3-|-0--x-0--x-3------|
    
    G|-------------------|
    D|-------------------|
    A|-------------------|
    E|-0--x-0--x-5--5-3--|
    
    Variations:
    G|------------------------|--------------------|---------------|
    D|------------------------|--------------/7--5-|---------------|
    A|------------------------|--------------------|---------------|
    E|-0--x-0--x-5--5-x-3h5p3-|-0--x-0--0-5--------|-0-x-0-5-5-5-3-|
    
    Bass…
  • E|---------------------------------------------------------|
    B|------------------------------------------------5~-------|
    G|--------------------------------------5---------5~-------|
    D|-7777777--7777777--7777777---777777-5-5-777777-5-7777777-|
    A|-0000000--0000000--0000000---000000-0---000000-0-0000000-|
    E|---------------------------------------------------------|…
  • Riff 1
    
    E|-------------------------------------------------------------|
    B|---------x-x-x----------x-x-x--------------------------x-x-x-|
    G|---------x-x-x----------x-x-x--------------------------x-x-x-|
    D|---------x-x-x----------x-x-x--------------------------x-x-x-|
    A|---------x-x-x----------x-x-x----------3---------------x-x-x-|
    E|-3--5-5--------3--5-5---------3--5-5-----5-5--3--5-5---------|
    
    E|-------------------------------------------------------------|
    B|---------x-x-x----------x-x-x--------------------------x-x-x-|
    G|---------x-x-x----------x-x-x--------------------------x-x-x-|
    D|---------x-x-x----------x-x-x--------------------------x-x-x-|
    A|---------x-x-x----------x-x-x----------5---------------x-x-x-|
    E|-3--5-5--------3--5-5---------3--5-5-----5-5--3--5-5---------|
    
    just…
  • No Bass until between verse 1 and 2
    G|-------------------------------------------------------------|
    D|-------------------------------------------------------------|
    A|-------------------------------------------------------------|
    E|-0---0---0---0---0…
  • Easily lets get carried away
    Easily lets get married today
    Shao Lin shouted a rose from his throat everything must go
    A lickin stick is thicker when you break it to show everything must go
    
    The story of a woman on the morning…
  • Intro
    
    g---------------------------9--------99-x9------------- ||
    d-77-7-0-77x7-0-----------------------------x9--10-----*|| Repeat
    a---------------7--0----77-------7---------------------*|| This (?)
    e------------------------------0-----------------------…
  • E|---------------|
    B|-8888xxx-------|
    G|-7777xxx-------|
    D|-5555xxx6--x5x-|
    
  • Intro:
    |-----------|-----7-------|
    |-----9-----|---7-------7-|
    |---9---9---|-5-------7---| X2
    |-7-------9-|-------5-----|
    
    Verse:
    |-----------|-----------|-----------|-------------|
    |-----9-----|-----5---5-|-----7-----|-----4---4---|
    |---9---9---|---5---5---|---7---7---|---4---4---4-|…
  • INTRO
    
    E--13b15----15r13--10--13---10--13b15----
    B----------------------------------------
    G----------------------------------------
    D----------------------------------------
    A----------------------------------------
    E----------------------------------------
    
    E---------8------------------------------
    B--8b10-------8b10r8------6h8p6--b8-----
    G----------------------7-----------------
    D----------------------------------------
    A----------------------------------------
    E----------------------------------------
    
    
    VERSE
    
    Dm…
  • riff 1        riff 2
    E|--12-----|-12-15-17-19-15-|-12-15-17-22/19-19-12-15-17-19-15||
    B|--10-----|-10-13-15-17-13-|-10-13-15-20/17-17-10-13-15-17-13||
    G|---------|----------------|---------------------------------||
    D|---------|----------------|---------------------------------||
    A|---------|----------------|---------------------------------||
    E|---------|----------------|---------------------------------||…
  • Am            F
     I?m an ocean in your bedroom
    C
     Make you feel warm
      G
     Make you want to re-assume
    Am       F      C         G
     Now we know it all for sure
    
    Am              F
     I?m a Dancehall dirty Breakbeat
    C
     Make the…
  • Bass fig.1 (Intro)
    G|-------------------------------------------------------------|
    D|-6-5-3-5--0-0---6--5----0--3--5--0-0-------------------------|
    A|--------------------------------------0--3--5-5----0--3--5-5-|
    E|-------------------------------------------------------------|…
  • Tune down 1/2 step
    
    Verse
    
          T T T T T  T T T T  T      T  T  T T  T T  T  T  T
    Gb|------------------0-------||----------------------------|
    Db|-------2---1--2-----4--3--||-------2---0--2----1--3--0--|
    Ab|---0/2--------------------||---0/2----------------------|
    Eb|---------0------0---------||---------0------0-----------|…
  • Intro & Verse
    E|------------------------------------------|
    B|------------------------------------------|
    G|------------------------------------------|
    D|------------------------------------------|
    A|--7-7-7-7-10-10-10-10---7-7-7-10-10-10-10-|
    E|------------------------------------------|
    
    Chorus
    E|-------------------------|
    B|-------------------------|
    G|-------------------------|
    D|--7-7-10-10---7-7--10-10-|
    A|-------------------------|
    E|-------------------------|
    
    Riff…
  • intro
    
    G|----------7h9p7--|-----------0h2-2---|
    D|-----7h9---------|----0------------2-|
    A|-----------------|-------------------|
    E|---0-----0-------|--0---0------------|
    
    verse
    
    E|--0-0-0-3-5-3--|
    
    chorus
    
    D|--0--|   A|---2-0-2-0-|…
  • Intro
    
    -------------------------------------------------------
    ---8B(10)--8B(10)~~~~~~~~~~~(8)P5----------------------
    ---------------------------------7B(9)~~~~~~~~~~~~~~~~-
    -------------------------------------------------------
    -------------------------------------------------------
    -------------------------------------------------------…
  • Theme :
    
    1st guitar :
    E|-------------------------------------------------------------|
    B|-------------------------------------------------------------|
    G|-------------------------------------------------------------|
    D|-2--x-x-x--2--x-x-x-x--2--2--2--x--x--x--x--2--x--x--x--2--2-|
    A|-2--x-x-x--2--x-x-x-x--2--2--2--x--x--x--x--2--x--x--x--2--2-|
    E|----x-x-x--0--x-x-x-x--0--0--0--x--x--x--x--0--x--x--x--0--0-|
    
    2nd…
  • Riff 1
    (allow as much feedback as possible, and bend with whammy bar)
    E|-----------------------|-----------------------|
    B|--11~~~~~~~~~~~~~~~~~~-|-9~~~~~~~~~~~~~~~~~~~~-|
    G|-----------------------|-----------------------|
    D|-----------------------|-----------------------|
    A|-----------------------|-----------------------|
    E|-----------------------|-----------------------|
    
    Riff…
  • CAPO 4TH- Chord names relevant to capo.
    
    Chord names-
    E      022100
    E6#11  044300
    Em7-   055400
    E6sus4 077600
    Emaj9  099800
    E*     079990
    G      320033
    D      000232
    Em     022000
    C      032010
    D/F#   000230
    Am     002210
    B…
  • Intro and Guitar Solo
    G|---------------------------|
    D|---------------------------|
    A|------------1--------------|
    E|--1---3------------1---3---| x3
    
    
    
    All x2
    
    G|--------------------------7h9-9--|
    D|---------3-3-3-3--5/7-7-7--------|
    A|-3h5-5-5-------------------------|
    E|---------------------------------|…
  • 4/4
      Gtr I
    |----------------------------------------------------|
    |----------------------------------------------------|
    |-----------------------------------------0----------|
    |---2---------------------0---2-0-------------2-2----|
    |-0---0-2-3-----3---3-----------------3--------------|
    |-----------1-0---0---0-3---3-----3-1---1---1--------|
    
    To…
  • Intro
    I just strum Em (022000). This gets boring if you're playing alone but
    the special effects on the CD give it more movement.
    
    
    Verse Riff
    
    e-|---------------------------------|-------------------------------|
    B-|---------------------------------|-------------------------------|
    G-|---------------------------------|-------------------------------|
    D-|---------------------------------|-------------------------------|
    A-|-----5h7-x-5h7-x-5h7-x-5h7-x-----|-----5h7-x-5h7-x-5h7-x-5h7-x---|
    E-|-0---------------------------5---|-0---------------------------5-|…
  • Intro
    E||-9---9-9----------|-----------------|
    B||-9---9-9----------|-----------------|
    G||-9---9-9----------|-----------------|
    D||-8---8-8----------|-----------------|
    A||----------7-9---7-|-9---------------|
    E||------------------|-----------------|
    
    E|-9---9-9----------|-------------------|
    B|-9---9-9----------|-------------------|
    G|-9---9-9----------|-------------------|
    D|-8---8-8----------|-------------------|
    A|----------7-9---7-|-------------------|
    E|------------------|-2-2-0-2-0-2-2-0-2-|
    
    Verse…
  • Intro
    
    e-|-------------|------------|
    B-|-------------|------------|
    G-|-------------|------------|
    D-|-------------|--5--4--3---|
    A-|------2--3---|------------|
    E-|--5----------|------------|
    
    
    e|---- -------------------|-------------|------------|
    B|----…
  • E|---------------|--------------------------------|
    B|--3f---3-3-3---|-----3f---------5b(6)--5--------|
    G|--3f---3-3-3---|-----3f---------5b(6)--5-(3)/53-|
    D|-----5-------5-|-3/5----53----------------------|
    A|---------------|--------------------------------|
    E|3--------------|--------------------------------|
    
    E|---------------------|-----------------------0-------|
    B|----3f---3-3-3-------|-----------------5b(6)-1-3-----|
    G|----3f---3-3-3/53----|-----------------5b(6)---3b(4)-|
    D|-------5-----------5-|-3/53--------------------------|
    A|---------------------|-------5--31-------------------|
    E|1/3------------------|-------------------------------|…
  • Main Part, 1st guitar:
       Am             F               Am            F
    E|----------------|--------------|-------------|---------------|
    B|---------0-1----|--------------|-------0-1---|---------------|
    G|----------------|---------0-2--|-------------|----------0--2-|
    D|-----2----------|--------------|-----2-------|---------------|
    A|-0--------------|-----2--------|-0-----------|------2--------|
    E|----------------|-1------------|-------------|--1------------|
    
    Main…
  • Bass
    
    Intro:
    G|---5-------5-5-|
    D|---5-------5-5-|
    A|---------------|
    E|---------------|
         P       P P
    Repeat two times
    
    Verse & Chours & ...(whole song):
    G|---------5-----------5-5-|
    D|---------5-----------5-5-|
    A|---8-0---------8-0-------|
    E|-------------------------|…
  • G  ||--------------------------|-------------------------------|
    D 4||--------1517------17--15--|12----------12--15----------12-|
    A 4||--------------------------|-------------------------------|
    E  ||--------------------------|-------------------------------|
    
    G|-----------------------------|-------------------------------|
    D|-------------------------14--|12----------14--15----------15-|
    A|10-------10--15--------------|-------------------------------|
    E|-----------------------------|-------------------------------|
    
    G|-----------------------------|-------------------------------|
    D|-----------------------------|-------------------------------|
    A|10-----------r2--------------|r2--------------15----------15-|
    E|-----------------------------|-------------------------------|…
  • Bass
    
    Bass figure 1:           B  B                                B B B B
    G-|-------9--------------------------|-------9--------------------------|
    D-|--------------7-7-9-9-9--9--7-----|--------------7-7-9-9--9-9-9-9--7-|
    A-|-9-9-9----9-9-----------------9-7-|-9-9-9----9-9---------------------|
    E-|----------------------------------|----------------------------------|…
  • Intro
    
    E|x----------------x-----------------x-----------------x-|
    B|x----------------x-----------------x-----------------x-|
    G|x----------------x-----------------x-----------------x-|
    D|-------------------------------------------------------|
    A|-------------------------------------------------------|
    E|-------------------------------------------------------|…
  • Bass
    
    Bass figure 1:
    G-|------------------------------|--------------------------|
    D-|----------------4-4-2-2-2-4-4-|--------------------------|
    A-|------------------------------|--------------------------|
    E-|-2--2-0-0-2-2-----------------|-2--2-0-0-0--2-----x-0--0-|
    
    G-|------------------------------|------------------------|
    D-|----------------4-4-2-2-2-4-4-|------------------4---4-|
    A-|------------------------------|------------------------|
    E-|-2--2-0-0-2-2-----------------|-2--2-0-0-0--2--2---2---|…
  • Intro
    
    e-|----------- -----|
    B-|----------- -----|
    G-|--10-10-10- -9---|
    D-|--10-10-10- -9---|
    A-|--9--9--9-- -7---|
    E-|----------- -----|
    
    Refrain
    
    e|-------------------- ----|
    B|-------------------- --x-|
    G|--------------------…
  • Verse
    G|------------7---9--|------------7---9--|------------7---9--|
    D|-------------------|-------------------|-------------------|
    A|--0-0-0-0-5---7----|--0-0-0-0-5---7----|--0-0-0-0-5---7----|
    E|-------------------|-------------------|-------------------|
    
    G|------------7---9--|
    D|-------------------|
    A|--0-0-0-0-5---7----|
    E|-------------------|
    
    Chorus
    G|------------|------------|------------|------------|
    D|------------|------------|------------|------------|
    A|--10-9-3-5--|--10-9-3-5--|--10-9-3-5--|--10-9-3-5--|
    E|------------|------------|------------|------------|
    
    Interlude…
  • Intro and verse         T = slap note | P = pop note
    
    G|---------------------|------------------------|
    D|-----2-2-------------|-----2-2--------5-----7-|
    A|-------------------5-|------------------------|
    E|--0-------0--3--5----|--0-------0--3-----5----|…
  • 1. play this 2x for intro    3.
    e|----3---3---3-------------|----3---3---3-----------------|
    B|------0---0----5---4---4--|------0---0----5---4---4---4--|
    G|-----------------0---0----|-----0---0---0----------------|
    D|----2---2---2-------------|----2---2---2-----------------|
    A|---------------3---2------|---3---2-----2----------------|
    E|--0-----------------------|--0---------------------------|
    
    4.…
  • E|----|---------------|
    B|-14-|---------------|
    G|-14-|-9/6-6-----6-9-|
    D|-14-|-------6/9-----|
    A|----|---------------|
    E|----|---------------|
    
  • E|------------------------------------------------------------|
    B|------------------------------------------------------------|
    G|------------------------------------------------------------|
    D|-------------7~5---5-----------7~5---5~0------5~0---------5-|
    A|---7~5---5-0-----7----7~5-5--0----7-------7----------7------|
    E|-0-----7-------------0-----7--------------------------------|
    
    E|------------------------------------------------------------|
    B|------------------------------------------------------------|
    G|-x-x-x-x-2-2-x-x-x-2-x-x-x-x-4-4-x-x-x-4--------------------|
    D|-x-x-x-x-2-2-x-x-x-2-x-x-x-x-4-4-x-x-x-4--------------------|
    A|-----------------------------------------7----7-----9-----9-|
    E|-----------------------------------------5----5-----7-----7-|
    
    E|------------------------------------------------------------|
    B|------------------------------------------------------------|
    G|------------------------------------------------------------|
    D|------------------------5-----------------------------------|
    A|-7--5--7--5--7--5--7---7--5--7--5--------7~5----------------|
    E|------------------------------------------------7---6---5~3-|…
  • This one of the PePPeRs best songs.
    Its played dropped D unless u have a 5 string.
    
    intro, verse and most of the song.
    G|--------------------------|--------------------------|
    D|--------------------------|-------------------7--7-5-|
    A|-----5--3--2--3-3-0-------|---5-5--3-2---------------|
    D|--------------------------|--------------------------|
    
    G|-------------------------|----------------------------|
    D|-------------------------|--3-------5-3-6-5-3---------|
    A|----5--3--2--3-3-0-------|--------------------------5-|
    D|-------------------------|----------------------------|
    
    chorus
    G|---------------------------------------|
    D|---------------------------------------|
    A|--5--3--1---------------5--3--1--3-3-1-|
    D|------------5--3--5--------------------|
    
    ending-this…
  • G|--7--9--7------------------9--7------------------9-7---------|
    D|-9---------5--7b8r7--5-----------5--7b8r7--5--0------5-7b8r7-|
    A|------------------------0------------------------------------|
    E|-------------------------------------------------------------|
    
    G|--------------------------------------------------------9--7-|
    D|-5-----------------------------5--7--7b8r7--5--9-------------|
    A|----0--------5--5b6r5--3--7-7--------------------------------|
    E|-------5--8--------------------------------------------------|
    
    G|-----------------------|
    D|-5--7b8r7--0-----------|
    A|----------------3----0-|
    E|-----------------------|
    
    RIFF…
  • Bass
    Slowly
    
    Intro:                       B(1/2)                    B
    G-|-17---17---17---17---|-17----17----17----17----|-17-------0----17----|
    D-|---15---15---15---15-|----15----15----15----15-|----15----0-------15-|
    A-|---------------------|-------------------------|---------------------|
    E-|---------------------|-------------------------|---------------------|
    
    G-|-17----17---17----17----17----|-17----17----17----17------|
    D-|---------------------15----15-|----15----15----15---------|
    A-|------------------------------|---------------------------|
    E-|------------------------------|---------------------------|
    
    Bass…
  • E|------------------------------------------------------|
    B|------------------------------------------------------|
    G|------------------------------------------------------|
    D|---------------------------------3--------------------|
    A|---3--3-5-------------------3-------5--3--------------|
    E|-5--5------x-x--x-x-x-x---5---5-------------x-x-x-x-x-|
    
    E|-------------------------------------------------|
    B|-------------------------------------------------|
    G|-------------------------------------------------|
    D|-----------------------------------------3-------|
    A|------3-----3--5-------------------3--5-----5--3-|
    E|---5-----5---------1---3-----3-4-5---------------|
    
    This…
  • E|-----------------------0-0---|
    B|---------2----------2------2-|
    G|-------2----------2----------|
    D|--3--3------3---3------------|
    A|-----------------------------|
    E|-----------------------------|
    
    E|-----------------------4-4-2-2-0-|
    B|---------2----------2------------|
    G|-------2----------2--------------|
    D|--3--3------3---3----------------|
    A|---------------------------------|
    E|---------------------------------|
    
    E|---------------------0-0---|
    B|---------2--------2------2-|
    G|-------2--------2----------|
    D|--3--3-----3---3-----------|
    A|---------------------------|
    E|---------------------------|
    
    E|----------------------7-7-4-2-0-|
    B|---------2---------2------------|
    G|-------2---------2--------------|
    D|--3--3-----3---3----------------|
    A|--------------------------------|
    E|--------------------------------|…
  • Verse 1
    G|-----------|
    D|-----5-5---|
    A|-----------|
    E|--3------3-|
    
    Verse 2
    G|----------------|
    D|----5-------8-8-|
    A|----------------|
    E|--3---3-3/6-----|
    
  • Intro
    e|----------------------------------------|
    B|----------------------------------------|
    G|----------------------------------------|  
    D|-----0---4---0---4---0---4/7--5--4-0----|  
    A|-0h2---2---2---2---2---2---0------------|x4
    E|---------------------------------3---3--|…
  • Verse play 4 times
    
    G |-----------|-----------|-----------|-----------|
    D |-----------|-----------|-----------|-----------|
    A |-----------|-------3---|-----------|-------3---|
    E |--5-5-5-3--|---5-------|--5-5-5-3--|---5-------|
    
    G…
  • Bass
    
    Intro:
    G|--------|--------|--------|--------|--------|----|
    D|--------|--------|--------|--------|--------|----|
    A|--------|--------|-2------|--------|--------|-4--|
    E|-5------|-1------|--------|-3------|-6------|----|
    
    Verse…
  • This is how you play it
    
    
       F         Am7      Dm                   F
    E|------------------|--------------------|---------------------|
    B|-6----6----5----5-|-6--6--6--6-6-------|----6--6-6----5----5-|
    G|-5----5----5----5-|-7--7--7--7-7-------|----5--5-5----5----5-|
    D|-7----7----5----5-|-7--7--7--7-7-------|----7--7-7----5----5-|
    A|-8----8----7----7-|-5--5--5--5-5---5-7-|-8--8--8-8----7----7-|
    E|------------------|--------------------|---------------------|…
  • Intro and Interlude:
    G|-------------------|----------------4-5--|
    D|-------------------|------------3-5------|
    A|5-5-5-5-5-3----3---|5-5-5-5-3-5---------3|
    E|-----------5-3--5-3|---------------------|
    
    G|-----------------------|---------------------------|
    D|-----------------------|---------------------------|
    A|5-5-5-5-5-3-------3----|-5-5-5-5--5--3-5-3-----2-3-|
    E|------------5-3-5---5-3|------------------5-1------|
    
    Verse…
  • Verse basic riff 1
    
    G|--9---------|
    D|------------|
    A|----7-------|
    E|-----(0)5p7-|
    
    Variation this is played after first verse and under guitar solo
    
    G|----------|
    D|----------|
    A|--7-------|
    E|----0-5p7-|
    
    Interlude with…
  • Bass
    
    Intro: (4x)
    G-|--------------------------------------------|
    D-|-------------5------------------------------|
    A-|--7--5-5--7-----7--5--7-----------2---------|
    E-|-------------------------5--3--5-----3--0---|
    
    Main…
  • G|-------------|---------------|---------------|-------------|
    D|-3--x-3-3--3-|---------------|---------------|-------------|
    A|-------------|-4--x-4-4--x-4-|-3--x-3-3--x-3-|-1--1-1--x-1-|
    E|-------------|---------------|---------------|-------------|
    
    G|---------------|-------------|---------------|---------------|
    D|-3--x-3-3--x-3-|-------------|---------------|---------------|
    A|---------------|-4--x-4-4--4-|-3--x-3-3-x--3-|-1--x-1-1--x-1-|
    E|---------------|-------------|---------------|---------------|
    
    G|---------------|-------------|-------------|---------------|
    D|-3--x-3-3--x-3-|-------------|-------------|---------------|
    A|---------------|-4--x-4-4--4-|-3--x-3-3--3-|-1--x-1-1--x-1-|
    E|---------------|-------------|-------------|---------------|
    
    G|---------------|-------------|-------------|---------------|
    D|-3--x-3-3--x-3-|-------------|-------------|---------------|
    A|---------------|-4--x-4-4--4-|-3--x-3-3--3-|-1-x--1-1--x-1-|
    E|---------------|-------------|-------------|---------------|
    
    G|-----------------|-3--x-3-3--x-3-|---------------|
    D|-3/5--x-5-5--x-5-|---------------|-3--x-3-3--x-3-|
    A|-----------------|---------------|---------------|
    E|-----------------|---------------|---------------|
    
    G|------------------------|---------------|-3--3-3--x-3-|
    D|-3-3--x-3--x-3--x---3-4-|-5--x-5-5--x-5-|-------------|
    A|------------------5-----|---------------|-------------|
    E|------------------------|---------------|-------------|
    
    G|---------------|--------------|-------------|------------|
    D|-3--x-3-3--x-3-|-3-3--3--3--3-|-2--x-2-2--2-|----------3-|
    A|---------------|--------------|-------------|-3--x-3-5---|
    E|---------------|--------------|-------------|------------|
    
    G|-------------|------------|---------------|------------|
    D|-2--x-2-2--2-|------------|-2--x-2-2--x-2-|----------3-|
    A|-------------|-3--x-3-5---|---------------|-3----3-5---|
    E|-------------|----------5-|---------------|------------|
    
    G|--------------|---------------|-------------|----------------|
    D|-2-x-2-2--x-2-|-0-x-0-3-3-x-2-|-2-2-2-2-2-2-|-0--x-0-3-3-x-2-|
    A|--------------|---------------|-------------|----------------|
    E|--------------|---------------|-------------|----------------|
    
    G|----------------|-----------------|----------------|
    D|--2-2-2-2-2-2-2-|-0-0-0-0-3-3-3-2-|--2-2-2-2-2-2-2-|
    A|----------------|-----------------|----------------|
    E|----------------|-----------------|----------------|
    
    G|-----------------|--------|
    D|-0-0-0-0-3-3-3-2-|--------|
    A|-----------------|--------|
    E|-----------------|--0-0-0-|…
  • Intro
    
    E|----------------------------------------------------|
    B|----------------------------------------------------|
    G|--------------------7-------------------------------|
    D|------------7-5-7/9---7-5---------------------------|
    A|7-5-7-5-7-5---------------7-5-7-5-7-5---------5-----|
    E|--------------------------------------5-3-5/7---5-3-|…
  • Bass 
    Very fast
    Cut time
    
    Bass figure 1:
    G-|-----------------|----------------|---------------------|
    D-|-----------------|----------------|---------------------|
    A-|-3---3---2---2---|----------------|-5---5---------------|
    E-|-----------------|-5---5---5--5---|---------3---3---3---|
    
    G-|-----------------|-----------------|----------------|----------------|
    D-|-----------------|-----------------|----------------|----4---5---7---|
    A-|-3---3------3----|-3---3---2---2---|----------------|-5--------------|
    E-|-----------------|-----------------|-5---5---5--5---|----------------|
    
    G-|----------------|------------|-------------|---------------|
    D-|----------------|------------|-------------|---------------|
    A-|----------------|-3----------|-(3)-----3---|---------------|
    E-|-3---3---3--3---|------------|-------------|-5---------5---|
    
    G-|---------------|-----------------|----------------|-----------------|
    D-|---------------|-----------------|----------------|-----------------|
    A-|---------------|-3---3---2---2---|----------------|-5---5-----------|
    E-|-4---------4---|-----------------|-5---5---5--5---|---------3---3---|
    
    G-|------------------|-----------------|-----------------|
    D-|------------------|-----------------|-----------------|
    A-|-3---3------3--4--|-5---5-----------|-3---3-------3---|
    E-|------------------|---------3---3---|-----------------|
    Repeat…
  • Tuning: EADGBe
    
    /=slide up
    =slide down
    h=hammer on
    p=pull off
    v or ~= vibrato
    x=left hand mute e.g x7 means left hand mute on the seventh fret.
    
    e|---------------------------------------------------------------------------
    B|---------------------------------------------------------------------------
    G|---------12-12-12----------------------------------------------------------
    D|---------12-12-12-----------------10-10-----------------3-3----------------
    A|-----------------------------------------------------3---------------------
    E|--10/12--------------1210---8/10----------105--3h5---------3-------------
    
    ^^^^^^^^^^^^^^^…
  • Intro seulement :
    
    e-|-------------------------------------|
    B-|-------------------------------------|
    G-|------2-------2--2-------12----------|
    D-|--4-4-2---4-4-2--2-2-4-7-----4-4--7--|
    A-|--4-4-----4-4------2-4-7-----4-4--7--|
    E-|--2-2-----2-2--------2-5-----2-2--5--|
    
    
    e|--------------------------------------|
    B|--------------------------------------|
    G|--------------------------------------|
    D|--7-7-7-7---77777--7-7---4------------|
    A|--7-7-7-7---77777--7-7---4------------|
    E|--5-5-5-5---55555--5-5---2------------|…
  • Todo con slap excepto:
                          * = no slap
    
    0:00   x2
    G|---9---|----------------------5h7-|-------------------5-|
    D|*--7--*|----------------5-5-------|-------------5-5-----|
    A|*-----*|----------5-5-7-----7-----|-------5-5-7-----7---|
    E|-------|12-0-x-x-----------------|-0-x-x---------------|
    
    0:11
    G|-------------------5h7-|-------------------|
    D|-------------5-5-------|-------------------|
    A|-------5-5-7-----7-----|-----------5-5-5h7-|
    E|-0-x-x-----------------|-0-x-x-x-x---------|
    
    0:15
    G|-------------------5h7-|-------------------5-|
    D|-------------5-5-------|-------------5-5-----|
    A|-------5-5-7-----7-----|-------5-5-7-----7---|
    E|-0-x-x-----------------|-0-x-x---------------|
    
    0:18
    G|-------------------5h7-|---------------------|
    D|-------------5-5-------|---------------------|
    A|-------5-5-7-----7-----|-----------5-5-5-5-5-|
    E|-0-x-x-----------------|-0-x-x-x-x-----------|
    
    0:22…
  • Intro:
    G-|----------------------12-----12h14-----12---|
    D-|------0h14-12h14--------14-12-----12h14--14-|
    A-|-12h14-----------12h14----------------------|
    E-|--------------------------------------------|
    
    G-|---------12--------12-----14-----12---|
    D-|-----0h14--14-12h14--14-12--12h14-----|
    A-|-0h14------------------------------12-|
    E-|--------------------------------------|
    
    Bass…
  • Intro play four times and after second time the lick below
    G|-----------|--3--5--3--|----------|--3-------|
    D|---5--5----|-----------|--5--5-5--|----------|
    A|-----------|--1--3--1--|----------|--1-------|
    E|---3--3----|-----------|--3--3-3--|----------|
    
    Flea's…
  • >=quarter bend
    ^=hammer on/pull off
    ~=vibrato
    p.m.=palm mute
    x=muffle strings
    -0---|
    
    e-1010--1010-1010-10--10-----------|
    B----------------------------------|
    G-7-7---7-7--7-7--7^9-9------------|
    D----------------------------------|
    A----------------------------------|
    E-------------------------0-3>-----|
    
    e-1212--1212-1212-12--12-------------5-5-5-5----|
    B------------------------------------5-5-5-5----|
    G-7-7---7-7--7-7--7^9-9-------------------------|
    D-----------------------------------------------|
    A-----------------------------------------------|
    E-------------------------0-3>--0---------------|
    
    Verse
    p.m-…
  • G|--------------------------------------|
    D|-3-33-33-33-33-33-3------3-33-33-33-3-|
    A|-------------------4-44-4-------------|
    E|--------------------------------------|
    
    G|---------------------------------------------------|
    D|-3-33-3------------------3-33-3--------------------|
    A|-------4-44-43-33-31-11-1-------4-44-43-33-31-11-1-|
    E|---------------------------------------------------|
    
    G|---------------------------------------------------|
    D|-3-33-3------------------3-33-3--------------------|
    A|-------4-44-43-33-31-11-1-------4-44-43-33-31-11-1-|
    E|---------------------------------------------------|
    
    G|--------------------------------------|
    D|-3/5-55-58-88-83--3-3--3-3--33-33-023-|
    A|--------------------------------------|
    E|--------------------------------------|
    
    G|------------------------------|
    D|-5-55-58-88-83-33-3-33--3-3-3-|
    A|------------------------------|
    E|------------------------------|
    
    G|----------------------------------|
    D|-2-22-2------0-3--2-22-2------0-5-|
    A|--------3--3-------------3--3-----|
    E|----------------------------------|
    
    G|-------------------------------------|
    D|-2-22-2------0-3--2-22-2--0--0-3-3-2-|
    A|--------3--3-------------------------|
    E|-------------------------------------|
    
    G|------------------------------------------------------------|
    D|-2-2--22-2--2--0--3-3-3--2--2-2-2-2-2-2-2---0-0-0-0-3-3-3-3-|
    A|------------------------------------------------------------|
    E|------------------------------------------------------------|
    
    G|--------------------------------------------|
    D|-2--2-2-2-2-2-2---0-0-0-0-3-3-3-3---2-------|
    A|----------------------------------------000-|
    E|--------------------------------------------|…
  • Verse
    G|------------------
    D|-------------------
    A|-------------------
    E|--6--8-8--11--4--4-
    
               bridge
    
    G|----------------------------
    D|-----------------------------
    A|-----------------------------
    E|-10-11-12-14-14--8-9-10-12-12-
    
    
    Verse…
  • -Intro
    
       Dm         C           Bb          Dm          C           Bb
    E----------------------------------------------------------------------------
    B----------------------------------------------------------------------------
    G----------------------------------------------------------------------------
    D------10--12------10--12------------------10--12------10--12----------------
    A--12----------10----------8---7-8-7---12----------10----------8---7--8-7----
    E----------------------------------------------------------------------------…
  • Verse 1
    G|------------------| (x8)
    D|------------------|
    A|----9-7-----------|
    E|--0-----9--x9-x9--|
    
    Chorus 1
    G|----------------------9-9----9-9------------------11-11----11-11--| (x4)
    D|-----11-11---11-11------------------9-9----9-9--------------------|
    A|-------------------7-7----7-7------------------9-9------9-9-------|
    E|--9-9-----9-9--------------------7-7----7-7-----------------------|
    
    Verse…
  • Intro: (Repeat 6 times)
    G|-------------------|--------------------|--------------------|
    D|-------11-------12-|--------------------|--------11-------12-|
    A|----10-------------|-10---12---10-------|------10----10------|
    E|-12-------10-12----|----12--------10-12-|-0--12---------12---|
    
    G|---------------------------|
    D|---------------------------|
    A|--10----12--10--8h10p9-----|
    E|----12---------------10--9-|
    
    Repeat…
  • G-|--------------------|-----|------------------|--9//11-|
    D-|--------------------|-----|------------------|--9//11-|
    A-|--------------------|-----|------------------|--------|
    E-|-O---0--0-----0-0---|h1p0-|-0---0--0----0-0--|--------|…
  • Em7(#9)
    
    E-|-------------------------------------------------|
    B-|---7777xxx-----------red-hot-chili-peppers-------|
    G-|---6666xxx---------------------------------------|
    D-|---7777xxx6--x5------main-riff-from--------------|
    A-|---8888xxx---x-------green-heaven----------------|
    E-|-0--------4--x3----------------------------------|…
  • capo on 4
    
    2 beats between each chord on the verses
    (verse)
    B     D#5         C#    E5   B      D#5       C#      E5
          shiver for me   girl        deliver for me my darling
    B     D#5         C#    E5   B      D#5…
  • Intro/Verse
    
    E|--------------------------------------------|
    B|---17---13---13-13-13------13--12-----------|
    G|---17---14---14-14-14------14--12-14--12-12-|
    D|---17---14---14-14-14------15---------------|
    A|15------12---12-12-12------15---------------|
    E|------------------------13------------------|…
  • G|---------------------------|
    D|---------------------------|
    A|---------------------------|
    E|---7--7-7p5p7--7p5-5p7-7---|
    
    Interlude
    G|---9---9---9-----------------|
    D|----------------5------7-----|
    A|---7---7---7-----------------|
    E|--------------3---3--5---5---|…
  • e|-------------------------------------------------|
    B|-------------------------------------------------|
    G|-------------------------------------------------|
    D|----5------------5--3--2--0--0-------------------|
    A|-5------------5-----------------3--3--2--2-------|
    E|--------------------------------------------2--3-|…
  • Intro: All vibratos with bar
    
    E|--------------------------------|---------------------------------------|
    B|--17)~~~~~~~----Vibrato-with----|----)-17---)---------------------------|
    G|--16~~~~~~~~------bar-into------|--16-----16-----14^16--14~~~~~~~~~~-x--|
    D|------------------FeedBack------|------------------------------------x--|
    A|--------------------------------|---------------------------------------|
    E|--------------------------------|---------------------------------------|
    
    E|--------------------------------|---------------------------------17---------|
    B|----)-17----)-17----------------|----)-17----)-17----------------------------|
    G|--16------16--------16-16--14~~-|--16------16------16-14--16-14--------14~~--|
    D|--------------------------------|--------------------------------------------|
    A|--------------------------------|--------------------------------------------|
    E|--------------------------------|--------------------------------------------|
    
    
    E|--------17----17--17-17--------|---------------------------------------------|
    B|----)--------------------------|---------------------------------)--17~~~~~~-|
    G|--16----------------------14~~-|------------14^16^14-----14----16------------|
    D|-------------------------------|--14^16--16-----------16---------------------|
    A|-------------------------------|---------------------------------------------|
    E|-------------------------------|---------------------------------------------|
    
    Chorus:
    
    Guitar…
  • Verse
    Here's the Bass tab, the guitar uses some strange studio
    effects that make figuring it out really tough.
    
    G|-----------------------------|------------------------|
    D|-----------------------------|------------------------|
    A|----------------2---3--2-----|------------------2---3-|
    E|-0h2-2-2-2-5-----------------|-2-2---2-2-2-5----------|…
  • Fig.1
                                    End
    E|----------------------------|--------------------------------|
    B|----------------------------|--------------------------------|
    G|*--------------------------*|--------------------------------|
    D|*--------------------------*|--------------------------------|
    A|--10--10-10-10-10-10-10-10--|-10--10--10--10--10--10--10--10-|
    E|----------------------------|--------------------------------|
    
    Instead…
  • Bass
    
    Intro:
    G-|----------------|---------------------------|-----|-----|
    D-|----------------|--7h8--10--8---------------|-----|-----|
    A-|-10------10-10--|--------------10--8--------|-----|-----|
    E-|----------------|-----------------------10--|--6--|--8--|
    
    Verse:
    G-|------------------|---------------|-----------------|----------------|
    D-|------------------|---------------|-----------------|----------------|
    A-|------------------|---------------|-----------------|----------------|
    E-|-3-3----3-3---x-3-|-3-3----3-3--3-|-3-3----3-3--x-3-|-3-3---3-3--x-3-|
    
    Chorus:
    G-|-------------|-------------|---------------|-------------|
    D-|-8-----------|-------------|--8------------|-------------|
    A-|----8----10--|-------------|------8----10--|-------------|
    E-|-------------|-3----3--3-3-|---------------|-3----3--3-3-|
    
    Verse…
  • Verse Part 1
    
    E|------------------------------------|-----------------|
    B|------------------------------------|-----------------|
    G|-3-3-3----------------------8-8-8-8-|-5-5-5-5-5-5-5-5-|
    D|-3-3-3-5-5-5--3-3-3--6-6-6--8-8-8-8-|-5-5-5-5-5-5-5-5-|
    A|-1-1-1-5-5-5--3-3-3--6-6-6--6-6-6-6-|-3-3-3-3-3-3-3-3-|
    E|-------3-3-3--1-1-1--4-4-4----------|-----------------|…
  • Intro play 4 times each bar
    G|----------------------|----------------------|
    D|--7-let-ring----------|--5-let ring----------|
    A|--0-0--0-0--0-0--0-0--|--0-0--0-0--0-0--0-0--|
    E|----------------------|----------------------|
    
    Main…
  • e-|---------------------------------------|
    B-|---------------------------------------|
    G-|---------------------------------------|
    D-|---------------5--7/9--9-9---97--7-7--|
    A-|--7-7-7-7-7-7--------------------------|
    E-|---------------------------------------|
    
    e-|-----------------------------------------|
    B-|-----------------------------------------|
    G-|-----------------------------------------|
    D-|---------------5--7/9--9-9--9/12--12-12--|
    A-|--7-7-7-7-7-7----------------------------|
    E-|-----------------------------------------|
    
    e-|---------------------------------------------|
    B-|---------------------------------------------|
    G-|---------------------------------------------|
    D-|---------------5--7/12--12-12-12--127--7-7--|
    A-|--7-7-7-7-7-7--------------------------------|
    E-|---------------------------------------------|
    
    At…
  • Intro:
    G|----12--------11--------10-------9-|
    D|-12-----12-11-----11-10-----10-9---|
    A|-----------------------------------|
    E|-----------------------------------|
    
    Verse: (Repeat 3x)
    G|-----------------------------------------------------|
    D|---5---4-5----5---4-5---------5---4-5----7-------5-4-|
    A|-7---7------7---7-----------7---7------7---4-5-7-----|
    E|-----------------------5-5---------------------------|
    
    Chorus:
    G|----------------------7-8------------------------------------|
    D|-9--9-7-9-7----9--9-7------9--9-7-9-7----------9--9-7-9-7----|
    A|------------9-------------------------9--9--7-------------9--|
    E|-------------------------------------------------------------|
    
    E|--------7-8-|
    B|-9--9-7-----|
    G|------------|
    D|------------|
    
    G|-------------------------------------------------7-8--------|
    D|-9--9-7-9-7------9---9---9--9--9-7-9-7----9--9-7-----9--9-7-|
    A|------------9--7---8---9---------------9--------------------|
    E|------------------------------------------------------------|
    
    E|-------------|
    B|-9-7---------|
    G|-----9--9--7-|
    D|-------------|
    
    G|----------------------7-8----------------------|
    D|-9--9-7-9-7----9--9-7-------9--9-7-9-7---------|
    A|------------9--------------------------789-7-5-|
    E|-----------------------------------------------|
    
    Instrumental:…
  • Intro
    G|------------------------------------------|
    D|-6h8-6h8-6h8-6h8-6h8--6h8-6h8-6h8-6h8-6h8-|
    A|------------------------------------------|
    E|------------------------------------------|
    
    Chorus
    G|------------------------------5-----|
    D|------------5------3-3--3-5h7---7-5-|
    A|-3-3--3-5h7---7-5-------------------|
    E|------------------------------------|
    
    Last…
  • Chorus and Intro
    G|----------------------------------------------------|
    D|-(5)----------------/7------------------------------|
    A|--------------2-5-2----5-5-2-3-5-5----3-3-3h5p3-1-3-|
    E|----3-3---3-3----------------------3h5--------------|
    
    G|---------------------------------|
    D|---------5-----3-3------5-5------|
    A|-----3-----3h5------5h7-----1h3--|
    E|-3h5---3-----------------------3-|
    
    Verse
    G|----------------------------------------------|
    D|-----------------------2--2-2-2-2-3---5---3-5-|
    A|------------0--0-0-0-0--------------3---------|
    E|-1--1-1-1-1-----------------------------------|
    
    Guitar…
  • Intro:
    G-|----|----|------|
    D-|----|----|------|
    A-|-5--|-7--|--5-7-|
    E-|----|----|------|
    
    Bass figure 1:
    G-|-----------------------|----------------------|
    D-|-----------------------|----------------------|
    A-|----x-5-6-7--x-3p0-----|----x-5-6-7--3--------|
    E-|-5------------------x3-|--5--------------x3-3-|
    
    Pre-verse…
  • starting part that sounds like a chainsaw starting is just a whole bunch
    of slides to nowhere on the E string
    G---9---8---7-----7--8--9-pop all notes on this string
    D------------------------
    A-7--6---5------5--6--7--slap…
  • Intro&Bridge                        1 ending  2 ending
    G|----------------------------------|--------|-------|
    D|----------------------------------|--------|-------|
    A|-7-7-7-7-7-9/10-10-10-9-7-7-7-7-7-|-5-5-6/-|-5-5-5-|
    E|----------------------------------|--------|-------|
    
    Verse
    G|-----------------------------------|
    D|-----------------------------------|
    A|-0h2-0h2-33333333-0h2-0h2----------|
    E|--------------------------33333333-|
    
    G|--------------------------------|
    D|--------------------------------|
    A|-0h2-0h2-0X3---0h2-0h2-----5553-|
    E|-----------------------3333-----|
    
    Chorus
    
    G|-----|
    D|-----|
    A|-----|
    E|-22--|…
  • Verse play eight times
    G|--------8p9-|-------8p9-|--------8p9-|---11p12--------|
    D|------------|-----------|------------|----------11p12-|
    A|--7-7-7-7---|--7-7-7-7--|--7-7-7-7---|--10------------|
    E|------------|-----------|------------|---------10-----|
    
    
    Interlude…
  • INTRO
    
    The intro part sounds a little strange but in an
    electric guitar it's something like this:
    
    e|------------------------|----------------------|
    B|--18--------------------|----------------------|
    G|--14-----17---16--------|--------10-12bp10-----|
    D|--12----------12--------|--10/12---------------|
    A|------------------------|----------------------|
    E|------------------------|----------------------|
    
    e|-----------------------------------------------|
    B|-----------------------------------------------|
    G|-----------------------------------------------|
    D|--10--12b--10----------------------------------|
    A|---------------10b----10b--10--5--3-3-3--3-3h5-|
    E|-----------------------------------------------|…
  • G#m                        E 
    Come to decide that the things that I tried 
    H                      F#
    were in my life just to get high on. 
    When I sit alone, come get a little known
    but I need more than myself this time.
    
    Step…
  • Chorus:
                                              Last Fill
    e-|----8-----8-----8-----8---8----------|------------|
    B-|----8-x-x-8-x-x-8-x-x-8-x-8----------|----5--7----|
    G-|----6-x-x-6-x-x-6-x-x-6-x-6--x--7----|----5--7----|
    D-|----7-x-x-7-x-x-7-x-x-7-x-7--x--7----|------------|
    A-|-----------------------------x--5----|------------|
    E-|-------------------------------------|------------|
    
    Verse:
    
    e-|--------------------------------|
    B-|-------------6-6---------6-6----|
    G-|-------------5-5---------5-5----|
    D-|-------------4-4---------4-4----|
    A-|-------------5-5---------5-5----|
    E-|----0-0-0-0-------0-0-0---------|
    
    Play…
  • A#m              C#
    Waking up dead, inside of my head
    A#sus4                F#
    Would never, never do, there is no med
    A#m    C#    A#sus4    F#
    No medicine to take
    A#m                C#m
    I’ve had a chance to be insane
    A#sus4…
  • * = no slap
    0:00   x2
    G|---9---|----------------------5h7-|-------------------5-|
    D|*--7--*|----------------5-5-------|-------------5-5-----|
    A|*-----*|----------5-5-7-----7-----|-------5-5-7-----7---|
    E|-------|12-0-x-x-----------------|-0-x-x---------------|
    
    0:11
    G|-------------------5h7-|-------------------|
    D|-------------5-5-------|-------------------|
    A|-------5-5-7-----7-----|-----------5-5-5h7-|
    E|-0-x-x-----------------|-0-x-x-x-x---------|
    
    0:15
    G|-------------------5h7-|-------------------5-|
    D|-------------5-5-------|-------------5-5-----|
    A|-------5-5-7-----7-----|-------5-5-7-----7---|
    E|-0-x-x-----------------|-0-x-x---------------|
    
    0:18
    G|-------------------5h7-|---------------------|
    D|-------------5-5-------|---------------------|
    A|-------5-5-7-----7-----|-----------5-5-5-5-5-|
    E|-0-x-x-----------------|-0-x-x-x-x-----------|
    
    0:22…
  • Вступление:  Играется все на аккорде  A 
    
    /=slide up
    =slide down
    
    e)------------------------------------------------
    B)--------------------------------------2--2------   
    G)--------------------------------------2--2------…
  • Main riff
                                                                            
    G |---------------------------------------------------------------------
    D |------4----------4-------------4------------2-----4------------------
    A…
  • Intro and Rhythm:
    e:-x-x-x-x-x-x-x-x-x-x-x-x-x--|-x-x-x-x-x-x-x-x-x-x-x-x-x--|-x-x-x-x-x-x-x-x-
    B:-6-x-x-6-x-x-6-x-x-6-x-x-6--|-6-x-x-6-x-x-6-x-x-6-x-x-6--|-6-x-x-6-x-x-6-x-
    G:-5-x-x-5-x-x-5-x-x-5-x-x-5--|-5-x-x-5-x-x-5-x-x-5-x-x-5--|-5-x-x-5-x-x-5-x-
    D:----------------------------|----------------------------|-----------------
    A:----------------------------|----------------------------|-----------------
    E:----------------------------|----------------------------|-----------------
    
    
    
    e:x-x-x-x-x--|-x-x-x-x-x-x-x-x-x-x-x-x-7-7|
    B:x-6-x-x-6--|-6-x-x-6-x-x-6-x-x-6-x-x-6-6|
    G:x-5-x-x-5--|-5-x-x-5-x-x-5-x-x-5-x-x-5-5|
    D:-----------|----------------------------|
    A:-----------|----------------------------|
    E:-----------|----------------------------|
    
    
    
    The…
  • Can be slapped, but fingerstyle is easier:
    
    
     -----|---------------------------------------------|
     ----4|-*-----------------344444444-6666--11-12-99-*|
     ----4|-*------------6444----------------88--------*|
     -----|--666666-5-444-------------------------------|
    
    And…
  • Tuning: STANDARD (e B G D A E)
    
    
    * Song Fades In
    
      P.M * * * * * * * * * * * * * * * * * * * * * * * * * * * * * * * * *
    e|---------------------------------------------------------------------------|
    B|---------------------------------------------------------------------------|
    G|---------------------------------------------------------------------------|
    D|---------------------------------------------------------------------------|
    A|---------------------------------------------------------------------------|
    E|0…
  • Intro
     -7-7------------|-7-7------------|-7-7------------|-7-7-----------------------
     -7-7------------|-7-7------------|-7-7------------|-7-7-----------------------
     -7-7------------|-7-7------------|-7-7------------|-7-7-----------------------…
  • Capo 2nd Fret. 
    ---------------2-2-2-2-----------|--------------------------------------------|
    --2-2-2-2-2-2--2-3-2-3-2h3p2-----|--------------------------------------------|
    --2-2-2-2-2-2--4-4-4-4-------4p0-|--------------------------------------------|
    --4-2-4-2-4-2--4-4-4-4-----------|-4h6-7-4------------------------------------|
    --4-4-4-4-4-4--2-2-2-2-----------|--------------------------------------------|
    --2-2-2-2-2-2--------------------|--------------------------------------------|…
  • Intro: Cm | E  | Cm | Em
           Em | D5 | C
    
    Em             D5 C
    All alone not by myself
    Another girl bad for my health
    I've seen it all through someone else
    (Another girl bead for my health)
    
    Celebrated but undisturbed
    Serenaded…
  • G |---------------------------------------------------------------------
    D |---------------------------------------------------------------------
    A |-----------------------------------2-2--------5-5--------2-2-------5-5
    E…
  • Verse
    -||-------------5----3/4--4----5-------|--------------------------------------||-
    -||------x-x-7--5----3/4--4----5--x-x--|----x-x-x-x--7--5----5h7-x-7----------||-
    -||------x-x-7--5----3/4--4----5--x-x--|----x-x-x-x--7--5----5h7-x-7----5~~---||-
    -||------------------------------------|--------------------------------------||-
    -||------------------------------------|--------------------------------------||-
    -||--5---------------------------------|--------------------------------------||-…
  • INTRO (same as PATTERN 1)
    
    PATTERN 1
    e|-0-0-0-0-0-0-0-0-0-0-0-0-0-0-0-0-0-0-0-0-0-0-0-0-0------------
    B|-2-2-2-2-2-2-2-2-2-2-2-2-2-2-2-2-2-2-2-2-2-2-2-2-2------------
    G|-2-2-2-2-2-2-2-2-2-2-2-2-2-2-2-2-2-2-2-2-2-2-2-2-2------------
    D|--------------------------------------------------------------
    A|--------------------------------------------------------------
    E|--------------------------------------------------------------…
  • -------------------------------------------------------------------------
    -------------------------------------------------------------------------
    -------------------------------------------------------------------------
    -------------------------------------------------------------------------
    4-3-2-5-6-7------5--7-7-5-7/-4-3-2-5-6-7------5-7------5-----------------…
  • Am                    G
    Getting born in the state of Mississippi,
    Dm                              Am 
    Her Poppa was a copper and her Momma was a hippy,
    Am           G
    In Alabama she will swing a hammer,
    Dm…
  • Intro
       e :---------------------------------------------------|
       B :--------9------------------------------------------|
       G :--------11-----------------------------------------|
       D :--*32x*-11-----------------------------------------|…
  • Intro: Dm | Gm | F | Gm C
    
    Dm		 Gm
    All the creatures,on the beaches 
    F		    Gm      C
    Makin' waves in the motion picture 
    Won't you keep this, in between us 
    Search and seizure, wake up venus 
    
    The dollar bill will
    Return…
  • Tuning: Standard
    
                                    x2
    e|--------------------------------------------|
    B|--------------------------------------------|
    G|--------------------------------------------|
    D|-10-10-8-8-7-7--7-7-8-8-10-10---------------|
    A|--------------------------------------------|
    E|--------------------------------------------|…
  • ^=pull off
    T=Slap
    P=Pop
    
      Bass fig.1 (Intro/verse)
      T   T   T   T     T   T T   T T
    G-------------------------------------------------------------
    D-------------------------------------------------------------
    A-------------------------------------------------------------
    E-5^0-4^0-3^0-2^0---5^0--0-4^0--0-3^0-------------------------
    
    Pre-Chorus…
  • Bass
    
    G-|-4------4------5------5------6------6------5------5-------|
    D-|---5------5------5------5------5------5------5------5-----|
    A-|-----5------5------5------5------5------5------5------5---|
    E-|----------------------------------------------------------|
    Repeat…
  • The opening riff is:
    
    E ---------------------|-------------------------|---------------------|---|
    B -------------------6-|-------------------6h8p6-|-------------------6-|---|
    G -------------------7-|-------------------7-----|-------------------7-|-2-|
    D…
  • Notes:
    ~ - Let Ring
    h - Hammer-On
    B - Bend
    
    Verse 1:
    G|------------------------------------------------------|
    D|------------------------------------------------------|
    A|------------------------------------------------------|
    E|--(0-2)----0-0-2----0-0-2----0-0-2----0-0-2----0-0-2--|…
  • G|---------------------------------------------------------------|
    D|-------5-7-^7^--5-^7^--5-^7^-----------------------------------|
    A|---5h7------------------------7-5----7--5----------------------|
    E|-0---------------------------------7-------7--6-5-3----^6-3-0-0|
    
    G|-------------------------12---12-14-^15^p14--------16--18--19~~~~--|
    D|---------12----12-13-14----14-----------------16/17--17--17--17~~--|
    A|12-13-14----14-----------------------------------------------------|
    E|----------------------------------------------------------------0--|
    
    G|-----------------------------------------------|
    D|-----------------------------------------------|
    A|--5-5-5--4-4-4--------------3-2----------------|
    E|0---------------5-3-0-2-3-0-----0-3-2-0--------|
    
    G|---------------------------------------------------------------|
    D|--------------5-7-^8--7-10-9-7---------------------------------|
    A|-------5-6-7------------------9-^10^-9-7-----------------------|
    E|5-6-7------------------------------------10|8-8|7-7|3--3-+2-2-0|
    
    G|-------------------------------------|
    D|-------------------------------------|
    A|-------------------------------------|
    E|-0-0-0-0^12^-0^12^-0^12^-0^15^-0^15^-|
    
    G|------12-11-------------------------------------------------------------------|
    D|14--12------9----------------------------------------------------------0-2----|
    A|--14-----------10/9-7-7/5-3-4-4-4-4-4-4В»----------------------------2--------2|
    E|--------------0----------------------------5/3-3---5-6-^6^--3-^6^--3-------3--|
    
    G|---------------7------------7--6-4--2----------|
    D|---------5-7h9---9-8-5-7--5----------5-4--0--2-|
    A|-----5h7---------------------------------------|
    E|-3-0-------------------------------------------|
    
    G|--------|--------|--------|-------|------|
    D|2-2-2-2-|2-2-2-2-|2-2-2-2-|2-2-2-2|-2-2--|…
  • Verse: 
     F#m                                A  
    Bells around St. Petersburg when I saw you 
      F#m                             A               E  
    I hope I get what you deserve and this is where I find 
     F#m…
Наверх