Аккорды «Reel Big Fish»

Reel Big Fish
Группа, сейчас состоящая из семи человек, начала свое существование в городе под названием Huntington Beach, что в Калифорнии в начале 90-х. На тот момент ее членами были: Ben Guzman (вокалист) Aaron Barrett (гитарист + подпевки) Matt Wong (басист) Andrew Gonzales (ударник). Первоначально, они играли каверы всяческих рок-хитов, пока Guzman не познакомил своих товарищей со славной музыкой ска. Тем все это очень понравилось, но вскоре, Guzman, человек который определил дальнейшую судьбу… Читать полностью... Группа, сейчас состоящая из семи человек, начала свое существование в городе под названием Huntington Beach, что в Калифорнии в начале 90-х. На тот момент ее членами были: Ben Guzman (вокалист) Aaron Barrett (гитарист + подпевки) Matt Wong (басист) Andrew Gonzales (ударник). Первоначально, они играли каверы всяческих рок-хитов, пока Guzman не познакомил своих товарищей со славной музыкой ска. Тем все это очень понравилось, но вскоре, Guzman, человек который определил дальнейшую судьбу группы ее же и покинул в 1995 году. Пришлось Barrett`у не снимая гитары подойти к микрофонной стойке. Но так как группа решила играть ска, необходима была духовая секция, которая быстренько и образовалась в количестве 4-х человек: Scott Klopfenstein (труба, вокал) Tavis Werts (труба) Dan Regan (тромбон) Grant Barry (тромбон). Новый состав RBF вскоре начал играть по клубам, в процессе чего они наверное переиграли во всех клубах Калифорнии вместе с другими ска-группами третьей волны, например No Doubt (тогда они еще играли ска. Кстати, ска в исполнении No Doubt можно послушать на California Ska Quake vol.1). Появилось много поклонников во многом из-за отличных живых выступлений. Вскоре кроме кавер версий появился новый материал, и RBF выпустили демо-кассет и выпустить первый альбом Everything Sucks в 1995 году на Piss-Off Records (отличное название:). На момент записи ребятам был 21 год, а музыку они сочиняли следующим образом: "Неважно нравится мне тот или иной стиль. Я возьму немного и из него" - говорил вокалист Barrett. Для фанатов которым альбом понравился, для скрашивания времени в предвкушении следующего, предлагалось прикупить всяческого барахла в виде цепочек для ключей, футболок, шорт, фрисби с символикой RBF. Затем продолжились гастроли, и в конце 1996 группа разродилась вторым альбомом Turn The Radio Off на Mojo Records который получил золотой статус (только официально продали более 100.000 копий). Этот альбом оказался хорошим толчком, что вывел группу в "авангард" южнокалифорнийской ска-панк сцены на одну ступень вместе с коллегами по цеху и по лейблу Goldfinger. Их хит Sell Out с этого альбома зазвучал отовсюду, все их чрезвычайно полюбили и группу стали приглашать повсюду выступать. А еще одну композицию Trendy взяла своим гимном команда Florida Marlins (американский футбол) - чемпион 1997 года. И это позволило членам группы проникновенно, вполголоса исполнить перед стадионом болельщиков национальный (американский) гимн во время одной из встреч. Также парни успели засветиться в кино (в роли самих себя) в фильме BASEketball с Matt Stone и Trey Parker, создателями мультфильма South Park. В следующем, 1997 они выпустили Keep Your Receipt EP который тоже очень хорошо разошелся во многом благодаря тому, что это был enchanced CD, то есть включал в себя кроме песен еще и различные видофрагменты "из жизни группы", что было в то время впервые. Третий альбом Why Do They Rock So Hard? (1998) был очень хорош и даже во многом лучше предыдущих, что бывает довольно редко, ведь обычно последующие альбомы хуже дебютных. Послушав его становится ясно, что несмотря на то, что все очень громко и весело, группа все же подросла в музыкальном плане. "Я думаю, что этот альбом более мелодичен и созвучен" - говорит басист Wong "Он более запоминающийся и более попсовее. Это все еще ска. Это все еще регии. Мы просто их немного изменили". Группа наконец получила свою порцию славы и купалась в ней, что не омрачилось даже тем что ряды группы заметно поредели (ушли Gonzales, Barry и Werts, а ударником стал Carlos De La Garza). Вот что говорил Barrett на вопрос, в чем же успех группы: "Я не думаю, что мы смогли бы играть вместе, если не были бы друзьями. Но это очень помогает играть. Если бы мы были одинаковыми и слушали одну и ту же музыку у нас бы такого не получилось". В довершение ко всему RBF получили премию BAMMIES от местного журнала Bam, как лучшая ска группа и лучший ска альбом 1998 года, духовая секция удостоилась чести подыгрывать Green Day во время их североамериканского турне, а ритм-секция играла на концерте посвященном возвращению легендарного Don Ho (?) и даже разогревала KISS, The Cure, The Blues Brothers и Coolio. И в 2002 году выпустили свой четвертый студийный альбом Cheer Up! Скрыть...
Популярные аккорды Reel Big Fish:
алфавиту | просмотрам | случайно
  • Standard tuning
    
    intro w/ slight distortion
       Am             C                   F                    G
    e-------------------------------------------1--------------------3-----------
    B------1-------1--------1-----------------------1-------------------3--------
    G--------2-----------0-----0-----0-------2----------2---------4--------4-----
    D----2------2-----------------2-------3----------------3-3/5--------------5--
    A--0--------------3----------------------------------------------------------
    E----------------------------------------------------------------------------…
  • INTRO
       riff1                                    end of riff1
      ------------------------------------------------------
      ---------REST---------REST---------REST---------------
      -44-3-44------44-3-44------44-3-44------44-3-44--4/14-…
  • A           C#             D           E
    E||--------------------------|--------------------------|
    B||--------------------5-----|--------7-----9h-10--9----|
    G||--------6--------------6--|-----------7--9-----------|
    D||-----------7-----6--------|-----7--------9-----------|
    A||-----7--------4-----------|--5-----------7-----------|
    E||--5-----------------------|--------------------------|
    
    
    A…
  • Harmonic intro
    G|--5---------12-------------------------------------------------------------|
    D|5---5----12-----12--------------------------------------------------------|
    A|---------------------------------------------------------------------------|
    E|---------------------------------------------------------------------------|…
  • Chord chart
        f f#m g  Bb b  c  d
    e|--1--2--3--1--2--3--5--|
    b|--1--2--3--3--4--5--7--|
    g|--2--2--4--3--4--5--7--|
    d|--3--4--5--3--4--5--7--|
    a|--3--4--5--1--2--3--5--|
    e|--1--2--3--------------|
    
    c           Bb…
  • Intro:                                                                         
    
     E|-------2----------------------|
     B|----------3-------------------|
     G|-4-----------4--------4-------|
     D|-4--------------------4-------|…
  • Tuning: Standard
    
    e|---------------------------------------|
    B|---------------------------------------|
    G|-----7-6-4----7-6-4----7-6-4----6/7----|
    D|--7--------5--------4--------3---------|
    A|---------------------------------------|
    E|---------------------------------------|
    Opening…
  • Verse:
    G--------------------------------
    D--------------------------------
    A--3--3---5-5-5----------2-3-5---
    E---------------1--1---3---------
    
    G--------------------------------
    D----------------3--3---3/5-3-2-0
    A--3--3--5-5-5-------------------
    E--------------------------------
    
    Chorus:
    G---------------------------------------
    D---------3-3---------------3-3-5-3-2---
    A-3-3-5-5--------2-3-5--3-3-5-5--------5
    E-------------3-------------------------
    
    Bridge:
    G-------------------
    D--2-3-5-------33333
    A3------------------
    E-------3-11111-----
    
    
    verse…
  • Main riff:
           B       E/F#  
    e||----7---7---7/9--9---||16x   
    B||----7---7---9/11-11--||   
    G||*-x-8---8-x-9/11-11-*||         
    D||*-x(9)-(9)x---------*||        
    A||--x(9)-(9)x----------||
    E||---------------------||…
  • Intro:
    E-------------------------------------------------
    B-------------------------------------------------
    G-----------------------------3-------------------
    D---0-3-1-1-0---0---0-3-1-1-0---0---0-3-1-1-0---0-
    A-1-----------3---1---------------1-----------3---
    E-------------------------------------------------
    
    E-----------------
    B-------1---------
    G-----2---3-2-3---
    D-3-3-------------
    A-----------------
    E-----------------
    
    Chords:…
  • Intro: 
    e--------------7p5-----------------------------------------------------------------
    B-----------------7p5--------------------------------------------------------------
    G-2-6/5-7---x7-------6------6-77---/6-7-9-9b11r9-9p7p6--6b7----------------7-6-4--2/
    D-2-6/7-7-9-x7--------6b7------------------------------------7-------7h9p7--------2/
    A-0-4/5-5-9-x5--------------4-55-------------------------------9-7h9--------------0/
    E---------7------------------------------------------------------------------------
    Pre…
  • S1: 
    Intro:             Guitar Fill
    E--4-x-4-x-5-5-5--|---------|
    B--5-x-4-x-5-5-5--|---------|
    G.-6-x-4-x-6-6-6-.|---------|
    D.---------------.|-9-9-9/4-|
    A-----------------|-9-9-9/4-|
    E-----------------|-7-7-7/2-|
    Play…
  • I  went to a party last Saturday night I didn't get laid, I 
    got in a fight
    E |6-6---6---6---6---|---6---6---6---6---|4-4---4---4---4---|---4---4---4---4---|
    B |8-8---8---8---8---|---8---8---8---8---|4-4---4---4---4---|---4---4---4---4---|
    G…
  • INTRO:
    e |---7-5-7-5-----------5-------------5-----------|
    B |-----------8-7-8-7-8---7-8-7-8-7-8---5---------|
    G |-7-------------------------------------7-------|
    D |-----------------------------------------------|
    A |-----------------------------------------------|
    E…
  • Intro + Verse: Play around with these chords if you want!
    (The chord in brackets is the chord you have to slide to for each chord)
    e|----------------|
    B|----------------|
    G|---------(4)/5--|
    D|--(7)5—-(4)/5--|
    A|--(7)5—-(2)/3--|
    E|--(5)3---------|
    
    Chorus…
  • Tuning: Standard EADGBE
    Clean Tone
    Intro and Verse: (Very Slow Strumming, strong downstroke sharp upstroke)
        F       A       Bb      C
    e|--1--1----5--5----6--6----3--3---------------------------------------------|
    B|--1--1----5--5----6--6----5--5---------------------------------------------|
    G|--2--2----6--6----7--7----5--5---------------------------------------------|
    D|--3-------7-------8-------5------------------------------------------------|
    A|--3-------7-------8-------3------------------------------------------------|
    E|--1-------5-------6-------3------------------------------------------------|
    
    After…
  • Standard Tuning
    
    Intro and Verse:
    	E	     B	    A
    e|----7-x-7-x-7--7-x-7-x-7--5-x-5-x-5----------------------------------------|
    B|----9-x-9-x-9--7-x-7-x-7--5-x-5-x-5----------------------------------------|
    G|----9-x-9-x-9--8-x-8-x-8--6-x-6-x-6----------------------------------------|
    D|----9-x-9-x-9--9-x-9-x-9--7-x-7-x-7----------------------------------------|
    A|----7-x-7-x-7--9-x-9-x-9--7-x-7-x-7----------------------------------------|
    E|----7-x-7-x-7--7-x-7-x-7--5-x-5-x-5----------------------------------------|
    
    Pre…
  • Horn part during intro:
    e|--------------||-------------------|
    B|--------------||-------------------|
    G|*--8---5--8---||-5----------------*|
    D|*----8--------||---8~---5-5-------*|
    A|--------------||------6-----8--6---|
    E|--------------||-------------------|
    intro…
  • Tuning - standard (EADG)
    
    Intro and verse
    G|-----------------------------------------------||
    D|-----8-8---------------------------------------||
    A|-----------------3-5-3-------------------------||
    E|---6---------3-6-------6------4--4----5--5-4-5-||
    
    Just…
  • S1: 
    Intro: (Bass)
    G-----------------------|-----------------------|
    B-----------------------|-----------------------|
    D-----2-----2-3-3-2-3p2-|-----2-----2-3-3-2-3p2-|
    E-3-3---3-3-------------|-3-3---3-3-------------|
    
    Guitar:
    E-3-3-3-3-3-3-3-3-|-3-3-3-3-3-3-5-5-|
    B-3-3-3-3-5-5-5-5-|-3-3-3-3-5-5-7-7-|
    G-4-4-4-4-5-5-5-5-|-4-4-4-4-5-5-7-7-|
    D-----------------|---------5-5-7-7-|
    A-----------------|-----------------|
    E-----------------|-----------------|
    
    Pre-Verse:
    E-3-3-3-3-3-3-5-5-|-3-3-3-3-3-3-5-5-|-3-3-3-3-3-3-5-5-|-3-3-3-3-3-3-5-5--|
    B-3-3-3-3-5-5-7-7-|-3-3-3-3-5-5-7-7-|-3-3-3-3-5-5-7-7-|-3-3-3-3-5-5-7-7-|
    G-4-4-4-4-5-5-7-7-|-4-4-4-4-5-5-7-7-|-4-4-4-4-5-5-7-7-|-4-4-4-4-5-5-7-7-|
    D-----------------|-----------------|-----------------|---------5-5-7-7-|
    A-----------------|-----------------|-----------------|------------------|
    E-----------------|-----------------|-----------------|------------------|
    
    Verse:…
  • S1: 
    Intro: (Bass)
    G-----------------------------------|
    D.-----8-8-6-6---------------------.|
    A.-------------8-8-6-6-5-5-6-6-8-8-.|
    E--6-6------------------------------|
    
    Guitar:
    E---------------------------------|
    B-----------------9-9-9-9-9-9-9-9-|
    G-----------------8-8-8-8-8-8-8-8-|
    D---------6-6-----7-7-7-7-7-7-7-7-|
    A-----8-8-----8-8-8-8-8-8-8-8-8-8-|
    E-6-6-----------------------------|
    
    Pre-Verse:
    E-x-6-x-6-x-6-x-6-x-6-x-6-x-6-x-6-|-x-6-x-6-x-6-x-6-x--8-x--8-x--8-x--8-|
    B-x-6-x-6-x-6-x-6-x-6-x-6-x-6-x-6-|-x-8-x-8-x-8-x-8-x-10-x-10-x-10-x-10-|
    G-x-7-x-7-x-7-x-7-x-7-x-7-x-7-x-7-|-x-8-x-8-x-8-x-8-x-10-x-10-x-10-x-10-|
    D---------------------------------|-------------------------------------|
    A---------------------------------|-------------------------------------|
    E---------------------------------|-------------------------------------|
    
    E-x-6-x-6-x-6-x-6-x-6-x-6-x-6-x-6-|-x-6-x-6-x-6-x-6---------------------|
    B-x-6-x-6-x-6-x-6-x-6-x-6-x-6-x-6-|-x-8-x-8-x-8-x-8---------------------|
    G-x-7-x-7-x-7-x-7-x-7-x-7-x-7-x-7-|-x-8-x-8-x-8-x-8---------------------|
    D---------------------------------|-------------------------------------|
    A---------------------------------|-------------------------------------|
    E---------------------------------|-------------------------------------|
    
    Verse:
    E--x-6-x-x-x-6-x-x-x-6-x-x-x-6-x-x-|-x-6-x-x-x-6-x-x-----------------|
    B--x-6-x-x-x-6-x-x-x-6-x-x-x-6-x-x-|-x-6-x-x-x-6-x-x-----------------|
    G.-x-7-x-x-x-7-x-x-x-7-x-x-x-7-x-x-|-x-7-x-x-x-7-x-x----------------.|
    D.---------------------------------|-----------------x-3-37-7---8-.|
    A----------------------------------|-----------------x-3-37-7---8--|
    E----------------------------------|-----------------x-1-15-5---6--|
    
    Pre-Chorus:
    E-x-6-x-6-x-6-x-6-x-6-x-6-x-6-x-6-|-x-6-x-6-x-6-x-6-x--8-x--8-x--8-x--8-|
    B-x-6-x-6-x-6-x-6-x-6-x-6-x-6-x-6-|-x-8-x-8-x-8-x-8-x-10-x-10-x-10-x-10-|
    G-x-7-x-7-x-7-x-7-x-7-x-7-x-7-x-7-|-x-8-x-8-x-8-x-8-x-10-x-10-x-10-x-10-|
    D---------------------------------|-------------------------------------|
    A---------------------------------|-------------------------------------|
    E---------------------------------|-------------------------------------|
    
    E-x-5-x-5-x-5-x-5-x-5-x-5-x-5-x-5-|-x-6-x-6-x-6-x-6-x-6-x-6-x-6-x-6-|
    B-x-6-x-6-x-6-x-6-x-6-x-6-x-6-x-6-|-x-6-x-6-x-6-x-6-x-6-x-6-x-6-x-6-|
    G-x-5-x-5-x-5-x-5-x-5-x-5-x-5-x-5-|-x-7-x-7-x-7-x-7-x-7-x-7-x-7-x-7-|
    D---------------------------------|---------------------------------|
    A---------------------------------|---------------------------------|
    E---------------------------------|---------------------------------|
    
    
    
    
    
    E-x-5-x-5-x-5-x-5-x-5-x-5-x-5-x-5-|-x-6-x-6-x-6-x-6------------|
    B-x-6-x-6-x-6-x-6-x-6-x-6-x-6-x-6-|-x-6-x-6-x-6-x-6------------|
    G-x-5-x-5-x-5-x-5-x-5-x-5-x-5-x-5-|-x-7-x-7-x-7-x-7------------|
    D---------------------------------|-----------------x------|
    A---------------------------------|-----------------x------|
    E---------------------------------|-----------------x------|
    
    Chorus:…
  • Intro
    
    e|---------------------------------------------------------------------------
    B|---------------------------------------------------------------------------
    G|---------------------------------------------------------------------------
    D|---2----2------------------------------------------------------------------
    A|---2----2--4--5--3---------------------------------------------------------
    E|---0----0--2--3--5---------------------------------------------------------
    
    
    e|---------------------------------------------------
    B|---------------------------------------------------
    G|---------------------------------------------------…
  • Intro                   Then...         4th time play:            
    G-------------------------|---------------|----------------
    D-------------------------|---------------|----------------
    A-------1-3---1-3-----1-3-|-----0-1-1-3-3-|-3-3/5-3--------
    E---1-------------1-------|-1-1-----------|----------------…
  • INTRO:
    e |--------------------------------------------------------|
    B |--------------------------------------------------------|
    G |--------------------------------------------------------|
    D |--------------------------------------------------------|
    A…
  • Intro:
      --3--5--7--5--3---|-6--8--10--8--6
      ------------------|---------------
      --4--5--5--5--4---|-7--8--10--8--6    etc.
      ------------------|---------------
      ------------------|---------------
      ------------------|---------------
    
    Main:…
  • h=hammer on
    b=bend
    .=palm mute
    Ian McSherry
    
    Intro
    
    |----------------------------|-----------------------------|
    |----------------------------|-----------------------------|
    |----------------------------|-----------------------------|
    |----------------------------|-----5-----------------------|
    |-----7----------------------|---3---3---------------------|
    |---5---5--------------------|-----------------------------|…
  • INTRO
    e--------------------------------------------------|
    B--------------------------------------------------|
    G--------------------------------------------------|
    D--------------------------------------------------|
    A--------------------------------------------------|
    E--5-0-50-6-0-6-5-0-5-0-7-0-7-5-6------------------|…
  • Intro:
    
    e|----------7-7--5-5-----x-x--7-7-7--x--5-------------|        2x
    B|-------7--7-7--5--5----x-x--7-7-7--x--5-------------|
    D|----8-----8-8--6----6--x-x--8-8-8--x--6-------------|
    G|-9--------9-8--7-------x-x--9-9-9--x--7-------------|
    A|----------------------------------------------------|
    E|----------------------------------------------------|
    
    Then…
  • (verse first time.)
    G:---------------------------------------------------------------
    D:----------2-3-5-55-5-55-4-3-33-3-33-2------/5-55---------------
    A:-3-33-3-3-----------------------------3-33---------------------
    E:---------------------------------------------------------------…
  • The intro, verse, and chorus chords are the same throughout:
    
    C#              |B   B   F#  F#
    1 + 2 + 3 + 4 + |1 + 2 + 3 + 4 + |
    
    
    here are the single note patterns:
    
    intro:
    
    G:-6~~~~~~~~~~~~~~~~~~-----|---------------10-11~~--|…
  • intro riff:
    E:-----------------|----------------|
    B:-----------------|----------------|
    G:-7-7-----7-7-----|----------------|
    D:-----------------|----4-----5-5-5-|
    A:-----5-------5---|----------------|
    E:-----------------|2-----3---------|…
  • drop-D tuning (low to high: D A D G B E) so the 
    chords are:
        D   G   C   F   E   A   B   this is important: d
    e:-----------------------------------------------------
    b:-----------------------------------------------------
    g:--7-------5---------------4--------------------------
    d:--7---5---5---3---2---7---4----------------------0---
    a:--5---5---3---3---2---7---2----------------------0---
    d:------5-------3---2---7--------------------------0---
    
    i…
  • G|----------------------------------------------------11----12-12-----|
    D|------------------7----7/9-9-7---------9---------11----11-12-12-----|
    A|-----5--------5-5---5----------9--7-77---7-7-7-9--------------------|
    E|7-77---7---7--------------------------------------------------------|
    
    G|---------------------------------------------------------------------9|
    D|------------------7----7/9-9-7---------9-----------8-11-8--11-8/9-11|
    A|-----5--------5-5---5----------9--7-77---7-7-7-9-9------------------|
    E|7-77---7---7--------------------------------------------------------|…
  • S1: 
    Intro: (acoustic, fade in)
    E-----------0-0-0-3-3-3--|
    B--1--1-1-1-1-1-1-3-3-3--|
    G.-0--0-0-0-2-2-2-0-0-0-.|
    D.-2--2-2-2-3-3-3-0-0-0-.|
    A--3--3-3-3-------2-2-2--|
    E-----------------3-3-3--|Play 4x
    
    Verse:…
Наверх