Аккорды «Richard Marx»

Richard Marx
Ричард Маркс (англ. Richard Noel Marx, род. 16 сентября 1963) — американский автор и исполнитель медленных композиций на романтические темы (баллад). В середине 1980-х Маркса можно было услышать на подпевках в концертах таких популярных исполнителей, как Madonna и Whitney Houston. Он подпевал Lionel Richie при записи его суперхита «All Night Long» (1984). Тогда же начал писать собственные песни, которые поначалу исполняли группа Chicago и король любовной песни Kenny Rogers. В 1987 г. наконец… Читать полностью... Ричард Маркс (англ. Richard Noel Marx, род. 16 сентября 1963) — американский автор и исполнитель медленных композиций на романтические темы (баллад). В середине 1980-х Маркса можно было услышать на подпевках в концертах таких популярных исполнителей, как Madonna и Whitney Houston. Он подпевал Lionel Richie при записи его суперхита «All Night Long» (1984). Тогда же начал писать собственные песни, которые поначалу исполняли группа Chicago и король любовной песни Kenny Rogers. В 1987 г. наконец вышел дебютный альбом Маркса. Он сделал начинающего певца суперзвездой и в скором времени три его композиции — Hold On To The Nights, Satisfied и Right Here Waiting — оказались на вершине Billboard Hot 100 (официального хит-парада США). На протяжении 1990-х публика постепенно остывала к сольным работам Маркса, который вновь стал писать песни для других, более популярных исполнителей. На 49-й церемонии вручения премий «Грэмми» (2004 г.) Маркс был награжден в одной из самых престижных номинаций — «песня года» (за написанную для покойного Luther Vandross песню Dance With My Father. Скрыть...
Популярные аккорды Richard Marx:
алфавиту | просмотрам | случайно
  • C	Am		F
    Oceans apart day after day
    	G	C
    And I slowly go insane
    C	Am		F
    I hear your voice on the line
    	G	     Am
    But it doesn't stop the pain
    
    Am	       F
    If I see you next to never
    Am	         F	C
    How can we…
  • G  C/E  G  C/E
              
    G    D/F#     Em               Am           G6    Dsus2/F#
             Whenever I'm weary   from the battles that rage in my head,    
             You make sense of madness  when my sanity hangs by a…
  • G    D   Em          Am   G   D
    Wise men say, only fools rush in,
    
        C   D   Em     Am      G     D    G
    but I can't help, falling in love with you.
    
           C   D
    
    
       G  D  Em            Am   G  D
    Shall I stay, would…
  • e -------6--6--5-5-5---3---5/6------|------6--5--6/8--/10-10-10---8---6--5H6P5---------------------------------|
    B-----------------------------------|------------------------------------------------------6-----8-------------|
    G-----------------------------------|---------------------------------------------------------------------5----|
    D-----------------------------------|--------------------------------------------------------------------------|
    A-----------------------------------|--------------------------------------------------------------------------|
    E-----------------------------------|--------------------------------------------------------------------------|
    
    
    e-----------------------------------|------------------------------------------------------5--6--8--10-6-8-----|…
  • e--------2--5-9----------
    B-10-7-10-9-----0-12-----
    G------------------------
    D--------------4---------
    A------------------------
    E------------------------
    
    e---------2--4-7---------
    B-10-7-10--9-----0-12----
    G------------------------
    D---------------4--------
    A------------------------
    E-------------------(4)--
    
    e--------2--5-9------
    B-10-7-10-9----------
    G--------------------
    D--------------4-----
    A--------------------
    E--------------------
    
    e-------9-6-8-7-6-----
    B-6/7/8---------------
    G---------------------
    D---------------------
    A---------------------
    E---------------------
    
    e-------9-6-8-7------
    B-6/7/8--------------
    G--------------------
    D--------------0-----
    A--------------------
    E--------------------
    
    verse…
  • Verse 1:
    
       C            Am         Bb          G
    We were strangers starting out on a journey
    C                 Am         F        G
    Never dreaming what we'd have to go through
    Am    G       C           Am          F
    Now…
Наверх