Аккорды «Ritchie Blackmore»

Ritchie Blackmore
Ritchie Blackmore родился 14 апреля 1945 года в английском городке Уэстон-Супер-Мэре. Первый инструмент – обыкновенная акустическая гитара – был подарен Ритчи в десятилетнем возрасте его отцом, и именно отец настоял на том, чтобы Ритчи не просто учился бренчать на шести струнах, но и брал уроки классической гитары. В это время семья Блэкморов жила уже в городе Хестоне, где в доме своей бабушки Ритчи впервые услышал могущественную музыку И.С. Баха, на всю жизнь запавшую в душу будущего гитариста-виртуоза.… Читать полностью... Ritchie Blackmore родился 14 апреля 1945 года в английском городке Уэстон-Супер-Мэре. Первый инструмент – обыкновенная акустическая гитара – был подарен Ритчи в десятилетнем возрасте его отцом, и именно отец настоял на том, чтобы Ритчи не просто учился бренчать на шести струнах, но и брал уроки классической гитары. В это время семья Блэкморов жила уже в городе Хестоне, где в доме своей бабушки Ритчи впервые услышал могущественную музыку И.С. Баха, на всю жизнь запавшую в душу будущего гитариста-виртуоза. Скрыть...
Популярные аккорды Ritchie Blackmore:
алфавиту | просмотрам | случайно
  • E tuning
    каподастр на 2 ладу
    
    E|--------------0h-2--|--3-----2h3h2h0------------|--0-|
    B|--------------------|-----0-----------3---------|--1-|
    G|--------------------|----------------------0----|--0-|
    D|--------------------|--2------------------------|--2-|
    A|--------------------|-----------------2---------|--3-|
    E|--------------------|---------------------------|----|
    
    E|---------------------|--------0h-2--|--3-----2h3h2h0---------|
    B|-1--1h0-------0------|--------------|-----0-----------3------|
    G|-2------2--0-----2h0-|--2-----------|----------------------0-|
    D|-2-------------------|--0-----------|--2---------------------|
    A|-0-------------------|--------------|-----------------2------|
    E|-----------0---------|--2-----------|------------------------|
    
    E|-0----------------|------------------------|----|
    B|-1----------------|--1----1h0--------------|----|
    G|-0----------------|--2--------2--0----2----|--1-|
    D|-2----------------|--2----------------0----|--2-|
    A|-3----------------|--0---------------------|----|
    E|------------------|--------------0----2----|--0-|
    
    E|------------------|----------------------|-------------------|
    B|-1-------3-----1--|--0---------1------0--|------------0------|
    G|-2-------2--------|--0---------0---------|--2----2----2------|
    D|-2----------------|----------------------|-----------------2-|
    A|-0----------------|----------------------|-------------------|
    E|-----3---2--------|--3----1----0---------|--1----0----0------|
    
    E|--------------0-|--1h-0---------------|--0-------------------|
    B|-0h1h0---3----1-|--------3--1--0------|-----------1----------|
    G|----------------|---------------------|-------4---2----4h2h0-|
    D|----------------|--0------------------|-----------2----------|
    A|-0-------2----3-|---------------------|-----------0----------|
    E|----------------|--------------3----1-|--4-------------------|
    
    E|-----------------------|-------0h-2-|--3-----2h3h2h0---------|
    B|------0--1--0----------|------------|-----0-----------3------|
    G|-2-----------------2h1-|-2----------|----------------------0-|
    D|-----------------------|------------|--2---------------------|
    A|-----------------------|-0----------|-----------------2------|
    E|-1----------0----------|------------|------------------------|
    
    E|-0-----------|--------------------------|---------------0h-2-|
    B|-1-----------|--1----1h0---------0------|--------------------|
    G|-0-----------|--2--------2--0-------2h0-|--2-----------------|
    D|-2-----------|--2-----------------------|--0-----------------|
    A|-3-----------|--0-----------------------|--------------------|
    E|-------------|--------------0-----------|--2-----------------|
    
    E|-3-----2h3h2h0--------|-0------------|--3---2h3h2-0----------|
    B|----0-----------3-----|-1----1/----8-|---------------4----7/-|
    G|--------------------0-|-0------------|-----------------------|
    D|-2--------------------|-2------------|--2--------------------|
    A|----------------2-----|-3------------|---------------2-------|
    E|----------------------|--------------|-----------------------|
    
    E|-0-|
    B|-0-|
    G|-1-|
    D|-2-|
    A|-2-|
    E|-0-|…
  • Замечание:
    Символ "!" означает, что ноты под ним должны быть взяты не все сразу, а быстро
    одна за другой, с нижней к верхней, как бы ударом по струнам. Я постарался 
    расположить цифры в соответствии с темпом,…
  • Песня написана в Gm
    для облегчения аппликатур каподастр на 3 лад
    
    Вступление (2 раза):
    
       Em          D   G       H   Am          C H Em          
    e|-0-3-2h3p2p0-------0----------------------------
    h--3-1-0---3-1-0-----1-0--------------
    g------------------2-----2-0---0------
    d----------------------------4---4-2--
    a------------------0------------------
    E|-0---------------3---------------------------0--
    
    Куплет:
    
    Em
    I´ve…
  • Accords:
                eBGDAE
    Em*       : 300220
    Esus2     : 200220
    Esus4add9 : 202220
    Em/H      : 004220
    D6        : 202000
    Dsus4     : 332000
    
    Chorus:
    Em* Esus2 Em*  Em
    Wish You Were Here...
    C                   D
    Me, oh,…
  • Instrumental:
    
    Guitar1:  e-------------------------|
              H-5-------3p5--3----------|
              G-------------5-4-5|-2----------------|
              D-------------------------|
              A-------------------------|…
  • Песня играется в Cm, посему ставим каподастр на 3 лад
    
    вступление (2 раза):
    
    E|------0-5-7-8-7-5-0----1-3-5-0------1-0-----------0---------|
    B|----------------------3------------3----3-1-0-1-3---3-1-0---|
    G|---2-----------------2------------2-----------------------2-|
    D|--2-----------------0------------0--------------------------|
    A|-0---------------------------0----------------------------0-|
    E|--------------------------------------------0-----0---------|
    
    куплет:
    
    E|-----------------------0----------------------------------|
    B|---0-1-3-1-0-----0-1-3---3-0-1-0------0-1-0---1-0---------|
    G|-2-----------2-2-----------------2--2-------2-----2-2-0-0-|
    D|--------------------------------------------------2-2-0-0-|
    A|-0-----------0---------------0------0-------0-----0-----2-|
    E|----------------------------------------------------------|
    
    E|-----------------------0----------------------------------|
    B|---0-1-3-1-0-----0-1-3---3-0-1-0------0-1-0---1-0---------|
    G|-2-----------2-2-----------------2--2-------2-----2-2-0-0-|
    D|--------------------------------------------------2-2-0-0-|
    A|-0-----------0---------------0------0-------0-----0-----2-|
    E|----------------------------------------------------------|
    
    припев:
    
    E|-----0-0---0-1-0---0------3-1-0------------------0-0---|
    B|----1----3---------------0------3----1-0--------1----3-|
    G|---0--------------------0-----------2----2-----0-------|
    D|--2--------------------0-----------2----------2--------|
    A|-3--------------------2-----------0----------3---------|
    E|---------------------3---------------------------------|
    
    E|-0-1-0----------------|
    B|-------3-1----0-1-0---|
    G|-------------0------2-|
    D|------------0-------2-|
    A|--------------------0-|
    E|----------------------|
    
    E|-----0-0---0-1-0---0------3-1-0--------------0-------0-0-|
    B|----1----3---------------0------3-1-0----1-3--------1----|
    G|---0--------------------0---------------2----------0-----|
    D|--2--------------------0---------------2----------2------|
    A|-3--------------------2---------------0----------3-------|
    E|---------------------3-----------------------------------|
    
    E|---0-1-0-----------------|
    B|-3-------3-1-----0-1-0---|
    G|----------------0------2-|
    D|---------------0-------2-|
    A|--------------2--------0-|
    E|-------------3-----------|
    
    текст:
    
    Am
    Underneath…
  • E|---------0h7p0----|--------------0-----------|
    B|-------0-------10-|-8h10p8p7---8---0---------|
    G|-----9------------|----------9-------0-4h5p4-|
    D|---9--------------|--------------------------|
    A|-7----------------|--------------------------|
    E|------------------|--------------------------|
    
    E|---------0-------|
    B|---0---0---0-----|
    G|-----4-------4---|
    D|-7-------------7-|
    A|-----------------|
    E|-----------------|
    
    E|------------------|---------0h7p0----|
    B|------------------|-------0-------10-|
    G|------------------|-----9------------|
    D|-5h7p5p4---4------|---9--------------|
    A|---------6---7----|-7----------------|
    E|------------------|------------------|
    
    E|--------------0-----------|
    B|-8h10p8p7---8---0---------|
    G|----------9-------0-4h5p4-|
    D|--------------------------|
    A|--------------------------|
    E|--------------------------|
    
    E|---------0-------|---------------|
    B|---0---0---0-----|---------------|
    G|-----4-------4---|---------------|
    D|-7-------------7-|-5h7p5p4---4---|
    A|-----------------|---------6---7-|
    E|-----------------|---------------|
    
    E|-------------12-15-14-12-|-11h14p11----------------|
    B|----------13-------------|----------12-------------|
    G|-------12----------------|-------------11----------|
    D|----14-------------------|----------------13-------|
    A|-15----------------------|-------------------14----|
    E|-------------------------|----------------------11-|
    
    E|-----------------|-----------------|
    B|-----------------|-----------------|
    G|---------------2-|---5-4h5p4h5p4---|
    D|---------2-4-5---|---------------7-|
    A|-------2---------|-0---------------|
    E|-0-2-3-----------|-----------------|
    
    E|---------------5-|-3h5p3p0-------0-----|
    B|-----4-------0---|---------5-0-3---5---|
    G|---4---4---5-----|-------------------7-|
    D|---------4-------|---------------------|
    A|-2---------------|---------------------|
    E|-----------------|---------------------|
    
    E|-------------------------|--------------|
    B|-------------0-----------|--------------|
    G|-5-4h5p4---4---4---------|--------------|
    D|---------7-------7-5h7p5-|-4---4--------|
    A|-------------------------|---7---6-7----|
    E|-------------------------|--------------|
    
    E|-----------------|---------------0-|
    B|-------0-------0-|-----------0-----|
    G|-----0-------5---|---0---0-----0---|
    D|---4-------4-----|-----4---5-------|
    A|-6-------6-------|-7---------------|
    E|-----------------|-----------------|
    
    E|-----------------|---------2-3-2h3p2h0-|
    B|---5-------------|-------3-------------|
    G|-------7---5---4-|-----2---------------|
    D|-----------------|---0-----------------|
    A|-0---0---0---0---|---------------------|
    E|-----------------|-2-------------------|
    
    E|-----------------|-------------------|
    B|-------0-------0-|-------------------|
    G|-----0-------5---|-------------0-2p=-|
    D|---4-------4-----|---------2-4-------|
    A|-6-------6-------|-------2-----------|
    E|-----------------|-0-2-3-------------|
    
    E|---------------------|---------3-2h3p2p0---|
    B|-----------0---------|-----3-------------0-|
    G|-0-------0---2h4p2p0-|---2---2-------------|
    D|---2---2-------------|-0-------------------|
    A|-----3---------------|---------------------|
    E|---------------------|---------------------|
    
    E|---------0-------|---|
    B|-------7---7-----|---|
    G|-----8-------8---|---|
    D|---9-----------9-|---|
    A|-----------------|---|
    E|-7---------------|-7-|
    
    E|---------0h7p0----|--------------0-----------|
    B|-------0-------10-|-8h10p8p7---8---0---------|
    G|-----9------------|----------9-------0-4h5p4-|
    D|---9--------------|--------------------------|
    A|-7----------------|--------------------------|
    E|------------------|--------------------------|
    
    E|---------0-------|
    B|---0---0---0-----|
    G|-----4-------4---|
    D|-7-------------7-|
    A|-----------------|
    E|-----------------|
    
    E|------------------|---------0h7p0----|
    B|------------------|-------0-------10-|
    G|------------------|-----9------------|
    D|-5h7p5p4---4------|---9--------------|
    A|---------6---7----|-7----------------|
    E|------------------|------------------|
    
    E|--------------0-----------|
    B|-8h10p8p7---8---0---------|
    G|----------9-------0-4h5p4-|
    D|--------------------------|
    A|--------------------------|
    E|--------------------------|
    
    E|---------0-------|---------------|
    B|---0---0---0-----|---------------|
    G|-----4-------4---|---------------|
    D|-7-------------7-|-5h7p5p4---4---|
    A|-----------------|---------6---7-|
    E|-----------------|---------------|
    
    E|-------------12-15-14-12-|-11h14p11----------------|
    B|----------13-------------|----------12-------------|
    G|-------12----------------|-------------11----------|
    D|----14-------------------|----------------13-------|
    A|-15----------------------|-------------------14----|
    E|-------------------------|----------------------11-|
    
    E|-----------------|-----------------|
    B|-----------------|-----------------|
    G|---------------2-|---5-4h5p4h5p4---|
    D|---------2-4-5---|---------------7-|
    A|-------2---------|-0---------------|
    E|-0-2-3-----------|-----------------|
    
    E|---------------5-|-3h5p3p0-------0-----|
    B|-----4-------0---|---------5-0-3---5---|
    G|---4---4---5-----|-------------------7-|
    D|---------4-------|---------------------|
    A|-2---------------|---------------------|
    E|-----------------|---------------------|
    
    E|-------------------------|-----------|-----------------|
    B|-------------0-----------|-----------|-----------1p0---|
    G|-5-4h5p4---4---4---------|-----------|---------2-----2-|
    D|---------7-------7-5h7p5-|-4---4-----|---1-2-4---------|
    A|-------------------------|---7---6-7-|-2---------------|
    E|-------------------------|-----------|-----------------|
    
    E|-------0-8-7p0-|
    B|-----7---------|
    G|---8-----------|
    D|-9-------------|
    A|---------------|
    E|---------------|…
  • Куплет:
          Hm                G             A               D           
    My diamond´s clouded over where it used to shine like light,
              G               Em
    And the day keeps running faster,
      Hm
    Into…
  • Играется с каподастром на 3 ладу
    (соответственно все аккорды и табы указаны относительно каподастра)
    
    Intro:
    
    e--------------------------------------0h1p0------------------
    h0h1p0-------------3-1h3p1p0---------1-------3-1h3p1p0--------
    g|---------2-------2-------2-------------0-----2-------------------2-0-2--
    d|-------2-----------2---2---2---------------2----------------------------
    a|-----0---------------0-------------------0---------------------------0--
    E|-0h3--------------------------------------------------------------------
    
    e------------------0h1p0---------5-7h8p7-5------------
    h0h1p0-----------1-------3-----5-----------5----------
    g|---------2-------2-------2-------------5---------------5-4h5-2--
    d|-------2-----------2---2----------------------------------------
    a|-----0---------------0---------------0-----------------------0--
    E|-0h3------------------------------------------------------------…
  • -||------------|---------------|-----------|--------------|-|--------------|--|
    -||------------|---------------|-----------|--------------|-|--------------|--|
    -||------------|---------------|-----------|--------------|-|--------------|--|
    -||------------|---------------|-----------|--------------|-|---7------5---|--|
    -||---7-----7--|---7----7p5-5--|---7----7--|---7----7p5-5-|-|-7------5-----|--|
    -||00----00----|00---00--------|00---00----|00---00-------|-|5-----3-------|--|…
  • -||-------------|----------------|------------|----------------|--------------|
    -||-------------|----------------|------------|----------------|--------------|
    -||-------------|----------------|------------|----------------|--------------|
    -||-------------|---------5---4--|------------|---------5---4--|--------------|
    -||--567----567-|---567-----5---5|--567----567|--567------5---5|--------------|
    -||0------0-----|-0-----0--------|0------0----|0------0--------|--------------|
    
    
    -|------------|----------------|------------|---------------|--------------|--|
    -|------------|----------------|------------|---------------|--------------|--|
    -|------------|----------------|------------|---------------|--------------|--|
    -|------------|--------5---4---|------------|--------54-4---|--------------|--|
    -|--567---567-|--567-----5---5-|--567---567-|--567567--7--7-|5-5-----------|--|
    -|0-----0-----|0-----0---------|0-----0-----|-0-------------|-7--7765-3----|--|
    
    
    -|-----|---------------|-----------------|-------------|-----------------|----|
    -|-----|---------------|-----------------|-------------|-----------------|----|
    -|-----|---------------|-----------------|-------------|-----------------|----|
    -|-----|---------------|---------5---4---|-------------|--------5---4----|----|
    -|-----|---567----567--|--567------5---5-|---567---567-|--567-----5---5--|----|
    -|-321-|-0------0------|0------0---------|-0-----0-----|0-----0----------|----|
    
    
    -|--------------|--------------|-------------|----------|---------------------|
    -|--------------|--------------|-------------|----------|---------------------|
    -|--------------|--------------|-------------|----------|---------------------|
    -|--------------|-------5---4--|-------------|----------|---------------------|
    -|---567----567-|---567---5---5|---567---567-|-------3--|---------------------|
    -|-0------0-----|-0------------|-0-----0-----|-2-3-5----|---------------------|
    
    
    -||----------|-----------|-----------|----------|---------||------------------|
    -||----------|-----------|-----------|----------|---------||------------------|
    -||----------|-----------|-----------|----------|---------||------------------|
    -||---9----9-|----9----9-|----9----9-|----9----9|---------||------------------|
    -||99---99---|-99----99--|-99---99---|-99---99--|----3-2--||------------------|
    -||77---77---|-77----77--|-77---77---|-77---77--|3-5------||------------------|…
Наверх