Аккорды «Robert Johnson»

Robert Johnson
Роберт Лерой Джонсон (Robert Leroy Johnson; 8 мая 1911, Хейзелхерст (Hazelhurst), Миссисипи — 16 августа 1938, Гринвуд (Greenwood)) — американский музыкант, один из наиболее известных (и легендарных) блюзменов XX века. После знакомства в 1930 году с известными блюзменами Соном Хаузом и Вилли Брауном пытался овладеть блюзовой гитарой, чтобы выступать с корифеями вместе. Надо сказать, что искусство это давалось ему крайне трудно. На какое-то время Роберт расстаётся с друзьями и исчезает в неизвестном… Читать полностью... Роберт Лерой Джонсон (Robert Leroy Johnson; 8 мая 1911, Хейзелхерст (Hazelhurst), Миссисипи — 16 августа 1938, Гринвуд (Greenwood)) — американский музыкант, один из наиболее известных (и легендарных) блюзменов XX века. После знакомства в 1930 году с известными блюзменами Соном Хаузом и Вилли Брауном пытался овладеть блюзовой гитарой, чтобы выступать с корифеями вместе. Надо сказать, что искусство это давалось ему крайне трудно. На какое-то время Роберт расстаётся с друзьями и исчезает в неизвестном направлении, чтобы вновь появиться уже в 1931 году. Появиться прекрасным музыкантом. С этого момента и следует отсчитывать появление мифа. Ошарашенные успехами «младшего товарища», Браун и Хауз только и могли спрашивать: как же так? Где ты научился этому? Джонсон рассказал байку от том, что есть некий магический перекрёсток, на котором он заключил сделку с князем Тьмы — отдал душу в обмен на умение играть блюз. В самых известных своих песнях (Me and the devil blues, Hellhound on my trail, Cross road blues) он впрямую упоминает об этом. Написав 29 песен, проведя три сессии звукозаписи, он погибает, как гласит официальная версия, от рук обманутого мужа своей возлюбленной. Песни его исполняли (и исполняют до сих пор) самые известные музыканты планеты: Eric Clapton, Led Zeppelin, Ry Cooder, The Rolling Stones, The Doors, Bob Dylan, Grateful Dead, John Mayall, Peter Green, Luther Allison, Red Hot Chili Peppers, Bonnie Raitt, The White Stripes и масса других. Снято несколько фильмов — документальных («The search for Robert Johnson», «Cain't you hear the wind howl?») и один художественный («Crossroads» Уолтера Хилла). Дискография его велика и не поддаётся разумному подсчёту в силу того, что ни одного альбома при жизни он не записал, а после смерти музыканта фирмы компиллируют его наследие по собственному желанию. Скрыть...
Популярные аккорды Robert Johnson:
алфавиту | просмотрам | случайно
  • Open G Tuning = D G D G B D  low to high
    ~~ = slide or slide vibrato       / = slide up           = slide down
    Played fingerstyle w/ slide
    
    1   G
         ~~~~~                 ~~~~~       ~~~~~
    d  |-10/12-12-12-12-12-12--11/12-12-12--11/12-12-12-|
    B…
  • This song has been transcribed in C, the same key as Robert's original
    recording.  Unfortunately it is his only uptempo 'hokum' song.  It is in
    standard tuning.
    
    The transcription is correct but it is difficult to convey…
  • D  ||----------------12--12--|--12--12--12--12\-----------------|
    A  ||----------------12--12--|--12--12--12--12\-0-0-0-----------|
    F# ||----------------12--12--|--12--12--12--12\-0-0-0--0--0--0--|
    D  ||------------------------|------------------0-0-0--------0--|
    A…
  • e   e   e   e   e   e   e   e      e   q    e   q           
    --14--14--14--14--14--14--14--14--|--14--14---14--------------
    --16--16--16--16--16--16--16--16--|--16--15^------------------
    ----------------------------------|------------------(13)-----
    ----------------------------------|---------------------------
    ----------------------------------|---------------------------
    ----------------------------------|---------------7-----------…
  • Intro-A,Am,E7,B7
    
    
     E5  A5                    E5
    Oh  baby don't you want to go
      A7                      E5
    Oh baby don't you want to go
                     B7         
    Back to the land of California 
               A7
    To my sweet…
  • Intro:   C  C7-F-Fm-G
    
          C                      C                     C     C7
    From four until late I was wringing my hands and crying
          F                      Ab                    C     A7
    From four until…
  • G                                                G7
    When you got a good friend that will stay right by your side
    
               C                                                G  G7
    When you got a good friend that will stay…
  • Johnson's original recording and this transcription are both in the key
    of A.  A standard guitar tuning is used.  A capo is used on the second fret.
    
    / = denotes slide
    * = denotes bending 1/4 step
    
    Introduction…
  • D||--12--12--12--12--12--12--12----12\---------|
    B||--12--12--12--12--12--12--12----12\---------|
    G||-----------------------------------------0--|
    D||--------------------------------------------|
    G||--------------------------------------------|
    D||--------------------------------------2-----|
    
    
    --------------------------------0--|-----5--------------------|
    --------------------------------0--|--------------------------|
    -----0--0--0--0--0--0--0--0--x--0--|--------------------------|
    --3--------2--------1--------0--x--|--------x--x--x--x--x--x--|
    -----------------------------0-----|--0-----0--0--0--0--0--0--|
    --3--------2--------1--------------|--2-----------------------|
    
    
    --5--5--5--5--5--5--5------|-----5--5--5\-3~-------|
    --5--5--5--5--5--5--5--0-0-|--0--5--5--5\-3~-------|
    -----------------------0-0-|--0--------------------|
    -----------------------0-0-|--0--------------------|
    -----------------------x-x-|--0--------------------|
    ---------------------------|-----------------------|
    
    
    -----------------------------|--------3--0-----------------|
    ------------------0--------0-|--------3--0-------------0-0-|
    --------3--0------0------0-0-|-----0------------0------0-0-|
    ---------------------2/4-----|---------------0--0--2/4-----|
    --0--0---------0-------------|--0------------0-------------|
    -------------2---------------|-------------2---------------|
    
    
    -----0-----0-0--------------------------|--------------------------|
    -----0--3--0-0-0---------------------5--|--5--5--5--5--5--5--5--5--|
    --------3------0--0------0-----------5--|--5--5--5--5--5--5--5--5--|
    --0------------0--0--2/4-0-----------5--|--5--5--5--5--5--5--5--5--|
    --0-------------------------0--0--0-----|--------------------------|
    ----------------------------------------|--------------------------|
    
    
    -------------------|--------2\-0-----------------|
    --5~---------------|-----0--2\-0------0------0-0-|
    --5~---------------|-----0------------0------0-0-|
    --5~---------------|------------------0--2/4-----|
    -------------------|--0--------------------------|
    -------------------|-------------2-0-------------|
    
    
    ----------------------------------------|--------------------------|
    -----0--3--3--------------0-------------|--------------------------|
    -----0--3--3--0---------0-0-------------|--7--7--7--7--7--7--7-----|
    --------------------2/4-----------------|--7--7--7--7--7--7--7--0--|
    --0--------------0----------0--0--0--0--|-----------------------0--|
    --------------x-------------------------|--------------------------|
    
    
    ---------------------------|-----------------------------|
    -------------------------x-|---------------------------0-|
    --5--5--5--5--5--5--5----x-|-----0--3--0------0------0-0-|
    --5--5--5--5--5--5--5--0---|---------------------2/4-----|
    -----------------------0---|--0------------0-------------|
    ---------------------------|-------------2---------------|
    
    
    -----------0----------------|---------------------------0------------12--||
    -----------0-0-----------0--|--------3--3---------------0-0----------12--||
    -----0--3--0-0----0------0--|-----0--3--3--0------------0-0----0---------||
    ------------------0--2/4----|-----0--------0--------2/4--------0--0------||
    --0------------0------------|--0-----------------0----------0-----0------||
    ----------------------------|-----------------2--------------------------||…
  • tuning: d g d g b
    
    here is the chords, below is the tab!!!*
    
    
    Intro:
    
    G/7
    
    verse:
    
    G/7 ("everytime i'm walkin'-down the street,some pretty mamma start
    breakin'down,stop...")
    
    chorus:
    
    C/7 ("down----yeah--stop…
  • G                               C  
    I went down to the crossroads, fell down on my knee 
                         G  
    Down to the crossroads, fell down on my knee 
     D7                              C                G  
    Ask…
  • D||-------------------|--------7----------------|--8----7\----0\----------|
    B||----------------8--|--8--7--7----------8--8--|--8----7\-3--6\----------|
    G||-------------------|-----------7--7----------|-------------------4-----|
    D||-------------------|-------------------------|----------------5-----5--|
    G||-------------------|-------------------------|-------------------------|
    D||-------------------|-------------------------|-------------------------|
    
    
    D||--------------------------------|-----5--3--5-----3-5-0----|
    B||--------------------------------|-----0--0--0-----0-0-0----|
    G||-----0--0--0--0--0--0--0--0--0--|-----0--0--0-----0-0-0----|
    D||-----0--3--------2--------1--0--|--0-----0-----------------|
    G||--------------------------------|--0-----0-----0------0----|
    D||--0-----3--------2--------1-----|--------------------------|
    
    
    D||------5-5-5--5--x-------------|-----5--5-5-5--5--5--------|
    B||------6-6-6--6--x-----------0-|-----6--6-6-6--6--6--------|
    G||------7-7-7--7--x---------0---|-----7--7-7-7--7--7--------|
    D||------------------------0-----|---------------------------|
    G||----------------------0-------|--0------------0-----------|
    D||-------------------0----------|---------------------0/-4--|
    
    
    D||-----5--5-5-5--5--5--5----------|-----5--3--3----5-5--0----|
    B||-----6--6-6-6--6--6--6--------0-|-----0--0--0------0--0----|
    G||-----7--7-7-7--7--7--7------0---|-----0--0--0---------0----|
    D||--------------------------0-----|-----0--0-----x------0----|
    G||--------0-0-0--0--------0-------|--0-----0-----x-----------|
    D||--5------------------0----------|--------------------------|
    
    
    D||-----8--5-8-5--8--5--------|-----8--5-8-5--8--5-------------|
    B||-----5--5-5-5--5-----------|-----5--5-5-5--5--5-----------0-|
    G||--x-----5-5-5--5-----------|-----5--5-5-5--5--5---------0---|
    D||---------------------x-----|--x-----------------------0-----|
    G||---------------------x-----|--x------------------x--0-------|
    D||------------------------0--|---------------------x----------|
    
    
    D||-----5--5-5-5--5--5--5----------|-----5--3--3----5-5--0----|-------------------|
    B||-----6--6-6-6--6--6--6--------0-|-----0--0--0------0--0----|-------------------|
    G||-----7--7-7-7--7--7--7------0---|-----0--0--0------0--0----|-------------------|
    D||---------------0----------0-----|---------------------0----|----------------5~-|
    G||--0---------------------0-------|--0-----0-----0-----------|-------------------|
    D||---------------------0----------|--------------------------|-------------------|
    
    
    D||----------------|-----5--3--5----5-0--0------|-----5--3--5-----------||
    B||--------------0-|-----0--0--0----0-0--0----0-|-----0--0--0-----------||
    G||--------------0-|-----0--0--0---------0----0-|-----0--0--0-----------||
    D||----------------|--------0------------0--0---|--------------0--------||
    G||------------0---|--0-----0-----0------0------|--0-----------0--------||
    D||----------------|---------------------0------|--------------0--------||…
  • E||--------------------9--|--9-------9--8--8--8--8--0--|
    B||-----------------8--8--|--8----------7--7--7--7-----|
    G||--------------9--------|--9----------8--------8-----|
    D||-----------------------|----------------------------|
    A||-----------------------|-------0--------------------|
    E||-----------------------|----------------------------|…
Наверх