Аккорды «Rock-H»

Rock-H
Rock-H (Рокаш) - рок-гурт із м. Мукачева Закарпатської області. Півфіналіст проекту "Свіжа кров" на М1, лауреат фестивалю "Червона рута". За назву їм служить файне закарпатське слово "РОКАШ", що означає "ГУРТ", а їхнє гасло "МИ НАОХТЕМА В РОКАШИ" (із закарпатської "ми завжди разом") дуже точно характеризує дружню атмосферу колективу. Учасники гурту - досвідчені музиканти Віктор Янцо - клавішні, Іштван Халус - вокал, Родіон Sun Lion - бас-гітара, Владимир Ульянов - ударні, Мар'ян Криськув… Читать полностью... Rock-H (Рокаш) - рок-гурт із м. Мукачева Закарпатської області. Півфіналіст проекту "Свіжа кров" на М1, лауреат фестивалю "Червона рута". За назву їм служить файне закарпатське слово "РОКАШ", що означає "ГУРТ", а їхнє гасло "МИ НАОХТЕМА В РОКАШИ" (із закарпатської "ми завжди разом") дуже точно характеризує дружню атмосферу колективу. Учасники гурту - досвідчені музиканти Віктор Янцо - клавішні, Іштван Халус - вокал, Родіон Sun Lion - бас-гітара, Владимир Ульянов - ударні, Мар'ян Криськув - гітара. Скрыть...
Популярные аккорды Rock-H:
алфавиту | просмотрам | случайно
  • Вступ: C#m  F#  E  G#  C#m  F#  G#
    1)-4----4---|--2----2---|--0----0---|--4----4---|-4----4---|-6----2---|-4----4---4---4----
    2)-5----5---|--2----2---|--0----0---|--4----4---|-5----5---|-2----2---|-4----4---4---4----
    3)-6--6---6-|--3--3---3-|--1--1---1-|--5--5---5-|-6--6---6-|-3--3---3-|-5--5---5---5---5--
    4)----------|-----------|-----------|-----------|----------|----------|-------------------
    5)-4--------|-----------|-----------|-----------|-4--------|----------|-------------------
    6)----------|--2--------|--0--------|--4--------|----------|-2--------|-4-----------------
    
    Куплет…
  • Вступ(4 рази):   
    5)-2--3-3--2-3-2-3-2--2--3-3--2-3-2-3-2-
    6)--------------------------------------
    
    Куплет:          B                                    F
    5)-2--3-3--2-3-2-3-2--2--3-3--2-3-2-3-2--3-3-3-3-3-3-3-3-3-3-3-3-3-3-3-3--
    6)---------------------------------------1-1-1-1-1-1-1-1-1-1-1-1-1-1-1-1--
    
    Куплет:
    B…
  • Приспів:
    Bm                Bm
    Марічко, ци чуєш, ого-го-го-го-го
    Bm              Bm
    А люби мене голого голо
    B                G
    Без сорочки, без гати
    G               C7
    Будеме ся бавити
    
    Bm…
  • Вступ(2 рази): D#m / A#m  G#m / A#m
    
    Куплет:
    D#m   /   A#m       G#m   /       A#m 
    Я не буду пиво пити, бо пиво гурькоє
    D#m   /    A#m      G#m   /     A#m 
    А лем буду любовати дівча солодкоє.
    Тай не буду я ходити…
Наверх