Аккорды «Samhain»

Samhain
Samhain — американская horror punk группа Гленна Данзига (Danzig, Misfits). Samhain - Дэзрок / Хоррор панк-группа, сформированная Гленном Данцигом в 1983 году, в то время, как Misfits были в крупных потрясениях и были близки к роспуску. Данциг первоначально планировал Samhain как сайд-проект, но после распада Misfits в октябре 1983 года, она стала его основной группой. Samhain является менее известной музыкальной группой Гленна Данцига, в переходный период своей музыкальной карьеры - преодоление… Читать полностью... Samhain — американская horror punk группа Гленна Данзига (Danzig, Misfits). Samhain - Дэзрок / Хоррор панк-группа, сформированная Гленном Данцигом в 1983 году, в то время, как Misfits были в крупных потрясениях и были близки к роспуску. Данциг первоначально планировал Samhain как сайд-проект, но после распада Misfits в октябре 1983 года, она стала его основной группой. Samhain является менее известной музыкальной группой Гленна Данцига, в переходный период своей музыкальной карьеры - преодоление разрыва между панком Misfits, и темным, тяжелым звуком металла Danzig. Гленн взял название группы с Самайна - древнего кельтского Нового года, который повлиял на современный Хеллоуин. Самайн произносится как "свинья-выигрыш» (который является произношение, что Гленн использует в песнях), хотя название группы часто произносится как "Сэм-Хане" для простоты. Samhain был намного темнее, чем Misfits, слово коренится в ужасе реальности и оккультизма, в отличие от иногда мультяшных вампиров и призраков Misfits. Музыкальный стиль Samhain был темным, жестким и экспериментальным сочетанием панка и готик-рока, на последнем альбоме перешедшим в тяжелый металл. Samhain выпустили два полноценных альбома и один EP в течение их трехлетней карьеры в качестве активной группы. Некоторые критикуют их первый альбом за то, что просто Misfits замедлился, но Samhain продемонстрировали превосходную музыкальность. Тот факт, что Samhain повторно записали несколько песен Misfits закрепила эту идею в умах некоторых людей, что Данциг не мог пройти мимо работы с Misfits. Однако, так как их карьера прогрессировала, они превратились в своего уникального стиля - Lo-Fi готик-метал и получил культ, который превзошел скромные достижения фанатов Misfits была в то время как они были активны. В качестве примечания, Гленн писал песни Bloodfeast и Death comes Ripping с намерением использовать их на первом альбоме Samhain, но они оказались на альбоме Misfits "Earth AD" в рамках последней попытки спасти группу. Скрыть...
Популярные аккорды Samhain:
алфавиту | просмотрам | случайно
  • Tuning: normal
    
    Riff 1:
    E------------------
    B------------------
    G------------------
    D------------------
    A-7-777-777-777-888
    E-5-555-555-555-666 x's 4
    
    Riff 2:
    E------------------------------------
    B------------------------------------
    G------------------------------------
    D-2-222-222-222-----2-222-222-222----
    A-2-222-222-222-444-2-222-222-222-555
    E-0-000-000-000-222-0-000-000-000-333…
  • Tuning: normal
    
    Riff 1:
    E-------------------------------
    B-------------------------------
    G-------------------------------
    D-22222-888888-2-77777-2-66666-2
    A-22222-666666-2-55555-2-44444-2
    E-00000--------0-------0-------0…
  • verse riff 1:
    E|-------------------------|-------------------------|
    B|-------------------------|-------------------------|
    G|-------------------------|-------------------------|
    D|--7-----8--7--7--7--8--7-|-10----12-10-10-10-12-10-|
    A|--5-----5--5--5--5--5--5-|--8-----8--8--8--8--8--8-|
    E|-------------------------|-------------------------|…
  • Tuning: Normal
    
    Riff 1:
    E--------------------------
    B--------------------------
    G--------------------------
    D-7-------7------7-----2--7
    A-5-------5------5--7--2--5
    E-------------------5--0--- x's 2
    
    Riff 2:
    E--------------
    B--------------
    G--------------
    D-7---4---5---7
    A-5---2---3---5
    E--------------…
  • Tuning: Normal
    
    Riff 1:
    E-------------------------------------------------------------
    B-------------------------------------------------------------
    G-------------------------------------------------------------
    D-55555-------88888--------------------55555-------88888------
    A-33333-88888-66666-55555--------------33333-88888-66666-44444
    E-------66666-------33333…
  • Tuning: Normal
    
    Riff 1:
    E---------
    B---------
    G---------
    D--------4
    A-22--8--2
    E-00--6--- x's 8
    
    Riff 2:
    E--------------------------------------------
    B--------------------------------------------
    G--------------------------------------------
    D-77777-------77777-------77777--------444444
    A-55555-77777-55555-77777-55555-777777-222222
    E-------55555-------55555-------555555-------
    
    Riff…
  • Tuning: normal
    
    Riff 1:
    E------------------------------------------
    B------------------------------------------
    G------------------------------------------
    D---------------------22----------777777777
    A-777777----777777-33-22----------555555555
    E-555555----555555-11-00…
  • Tuning: normal
    
    Riff 1:  Part A                    Part B
    E----------------------------|---------------------|
    B----------------------------|---------------------|
    G-2-22-----------------------|---------------------|
    D-2-22-5-55-4-44-5-55--------|-4444-5555-7777-9999-|
    A-0-00-3-33-2-22-3-33--------|-2222-3333-5555-7777-|
    E--------------------…
  • Tuning: Normal
    
    Riff 1:
    E------------
    B------------
    G------------
    D-55-88-33-55
    A-33-66-11-33
    E------------ x's 4
    
    Riff 2:
    E--------------------
    B--------------------
    G--------------------
    D-5555-8888-3333-5555
    A-3333-6666-1111-3333
    E--------------------…
  • Tuning: normal
    
    Riff 1:
    E--------------
    B--------------
    G--------------
    D-7-77-5-7-77-9
    A-5-55-3-5-55-7 x's 4
    E--------------
    
    Riff 2: Part A                            Part B
    E------------------------------------------------------------------
    B------------------------------------------------------------------
    G------------------------------------------------------------------
    D---------------------------------777777-101010-55555-888888-666666
    A-4--------4----------------------555555-888888-33333-666666-444444…
  • ALBUM:Initium      riff 1:             riff 2:
    E|-----------------| |-----------------|
    B|-----------------| |-----------------|
    G|-----------------| |-----------------|
    D|-----------------| |-----------------|
    A|-5-5---5-5-5-4---|…
  • Tuning: normal
    
    Riff 1: E chord after 1x, pming after 2nd time
    E---------------------------------------------------|
    B---------------------------------------------------|
    G---------------------------------------------------|
    D---------------------------------------------------|
    A-5h6-5h7-5h8-5h6---------5h6-5h7-5h8-5h6-----------|
    E------------------5-7-5------------------3~…
  • Tuning: normal
    
    Riff 1:
    E---------------------------------------------
    B---------------------------------------------
    G---------------------------------------------
    D---------------------------------------------
    A----7---7-----6---6---------------------6---6
    E-5~-5-0-5--4~-4-0-4…
  • Tuning: Normal
    
    Riff 1: Guitar 1 (pm's a lot)   | Guitar 2
    E-------------------------------|-----------------
    B-------------------------------|-----------------
    G-------------------------------|-----------------
    D-------------------------------|-----------------
    A-------------------------------|-----2-1------5-4
    E-000000000000000000000000000---|-1-3------1-3----…
  • Tuning: normal
    
    Riff 1:
    E----------------------------|
    B----------------------------|
    G-44444444-5555-3333---------|
    D----------------------------|
    A----------------------------|
    E-------------------  x's 12-|
    
    Riff 2:
    E------------------|
    B------------------|
    G------------------|
    D-2----------------|
    A-2--3(3)-5--------|
    E-0--1(1)-3…
  • Tuning: Normal
    
    Riff 1:
    E---------------------------------
    B---------------------------------
    G---------------------------------
    D---------6-8-2----------------8-6
    A-44444-6-4-6-2-----------4-6--6-4 x's 2
    E-22222-4-----0…
  • Tuning: Normal
    
    Riff 1: Palm mute all, then gradually release.
    E--------------------------------------------
    B--------------------------------------------
    G--------------------------------------------
    D--------------------------------------------
    A--7777777777-101010-555------------777777777
    E--5555555555--8-8-8-333-x's…
  • intro and verse
    e|-----14-14-14-14-14-15-14-14-14-15-14-14-14-15-14-14-14-15-14--------------|
    B|---------------------------------------------------------------------------|
    G|---------------------------------------------------------------------------|
    D|---------------------------------------------------------------------------|
    A|---------------------------------------------------------------------------|
    E|---------------------------------------------------------------------------|…
  • intro:
    E|-----------------|
    B|-----------------|
    G|-----------------|
    D|-----------------|
    A|-6^--------------|
    E|-----------------|
    
      main riff:
    E|-----------------|-----------------|-----------------|-----------------|
    B|-----------------|-----------------|-----------------|-----------------|
    G|-----------------|-----------------|-----------------|-8--8--8---------|
    D|-----------------|-AH--------------|-----------------|-8--8--8---------|
    A|-7---0-6-0-3-0-0-|-7---0-6-0-3-0-0-|-7-7-0-6-0-3-0-0-|-6--6--6-----6^--|
    E+-----------------|-----------------|-----------------|-6--6--6---------+…
  • tuned standard
    
    A# A (2x's) 
    B A# B(3x's)
    
    A# A(4x's) 
    F# F(4x's) solo over that somehow
    
    A Ab(4x's) B A# B
    A# A(2x's) B A# B
    A# A(4x's) 
    F# F(4x's) 
    A Ab(4x's) B A# B
    A# A(2x's) B A# B
    A#
    
    
  • Tuning: normal
    
    Riff 1:  Part A                                       Part B
    E------------------------------------------|-----------------------------------------------------
    B------------------------------------------|-----------------------------------------------------
    G------------------------------------------|-----------------------------------------------------
    D---------------------9-7-7-5-7-6-7--------|--------------------6-5----------6-5--7-5-7-9-7-5-7-9
    A---------------------7---5---5-4-5…
  • Tuning: Normal
    
    Intro: 
    E----------------------------------------
    B----------------------------------------
    G----------------------------------------
    D----------------------------------------
    A-7777-10-5-4-3----3----3----------------
    E-5555--8-3-2-1-00-1-00-1-000000000000---…
  • Tuning: normal
    
    Riff 1:
    E------------
    B------------
    G------------
    D-2-22-------
    A-2-22-5-6-66
    E-0-00-3-4-44  x's 8
    
    Riff 2:
    E--------------------------------------------------
    B--------------------------------------------------
    G--------------------------------------------------
    D-2222222----------22222222------------------------
    A-2222222-66666666-22222222-6666666-777777-666666-5
    E-0000000-44444444-00000000-4444444-555555-444444-3
    
    Riff…
  • Tuning: Normal
    
    Riff 1: heh, the only riff.
    E----------------------------------------------------------------------------
    B----------------------------------------------------------------------------
    G----------------------------------------------------------------------------
    D----------------------------------------------------------------------------
    A---5----5-------4---4-----5--5-----4--4-------------------------------------
    E-3----3----3--2---2---2-3--3---3-2--2---2-3---------------------------------…
  • Tuning: normal
    
    riff 1:
    E------------------------------
    B------------------------------
    G------------------------------
    D-44444-77777------------------
    A-22222-55555 x's 3--5-4-------
    E--------------------3-2  x's 3
    
    Riff…
  • Tuning: normal
    
    Riff 1:
    E----------
    B----------
    G----------
    D----------
    A----------
    E-0-3-0-3-5 x's 6
    
    Riff 2:
    E---------------------------------------
    B---------------------------------------
    G---------------------------------------
    D-0-3-0-3-5-----------------------------
    A-----------------------------5555555555
    E------------0-3-0-3-5…
  • Riff 1:
    E-----------------------------------------------------------
    B-----------------------------------------------------------
    G-----------------------------------------------------------
    D-9--7-5-7--9-------------------------------9--7-5-7777777-7
    A-7--5-3-5--7--77-8-7-55-6-5-77-8-7…
  • Main Riff:
    E|---------------------------------|
    B|---------------------------------|  Slide between these
    G|---------------------------------|  notes on the E string.
    D|---------------------------------|
    A|---------------------------------|
    E+-0-----7-----3---5-----3-----2---+…
  • Tuning: Normal
    
    Riff 1: Part A             Part B  | played on 2nd time
    E----------------|--------------------------------------------------|
    B----------------|--------------------------------------------------|
    G----------------|-2------------------------------------------------|
    D----------------|-2-4-5-7---------------7-6--------8-7---------9-8-|
    A-4-3-4-5--------|-0-2-3-5…
  • Tuning: Normal
    
    Riff 1:
    E-------------------
    B-------------------
    G-------------------
    D-9------7----------
    A-7---9--5---------9
    E-----7--- x's 5 --7
    
    RIff 2:
    E-------------------------------7-------------------7------
    B----------------------------------------------------------
    G---9-7---------------9---------------9-7---------------9--
    D-7---------7~------7--------7~-----7---------7~-----------
    A--------5~----5~---------5~--------------5~-----5~--------
    E----------------------------------------------------------
    
    Riff…
  • Intro
    e|-----|---------|
    B|-----|---------|
    G|-----|---------|
    D|-----|---------|
    A|-8-7-|-5-5-6-5-|
    E|-6-5-|-3-3-4-3-|
    
    Verse
    e|-----------------|
    B|-----------------|
    G|-----------------|
    D|-----------------|
    A|-5-5-6-5---------|
    E|-3-3-4-3-0000000-|
    pm…
  • Tuning: Normal
    
    Riff 1 :
    E--------------------
    B--------------------
    G--------------------
    D--------------------
    A-3333-4444-7777-6666
    E-1111-2222-5555-4444  x's 4
    
    Riff 2:
    E------------------------
    B------------------------
    G------------------------
    D------------------------
    A-444444444-333333-555555
    E-222222222-111111-333333…
  • Tuning: normal
    
    No guitar untill 1:48
    
    Riff 1:
    E----------
    B----------
    G----------
    D-7-6-6-6-6
    A-5-4-4-4-4  x's 4
    E----------
    
    Riff 2:
    E---------------------
    B---------------------
    G---------------------
    D-6--999999-6--1111111
    A-4--777777-4--999999-…
  • Tuning: normal
    
    Riff 1:
    E------------------------------------------------|
    B------------------------------------------------|
    G------------------------------------------------|
    D------------------------77777-55555-88888-------|
    A-55--55---5555555555555-55555-33333-66666-------|
    E-----------------------------------------…
  • Tuning: Normal
    
    Riff 1: 
    E--------------------------
    B--------------------------
    G--------------------------
    D--------------------------
    A----5-------8-------------
    E-55---55-55---------------
    
    Riff 2:
    E--------------------------
    B--------------------------
    G--------------------------
    D--------------------------
    A----1-------4-------------
    E-11---11-11---------------…
  • Tuning: Normal
    
    Riff 1:
    E-------------------
    B-------------------
    G-------------------
    D-6-----6----------2
    A-4--5--4--5-------2
    E----3-----3-------0 x's 4 (let ring each time)
    
    Riff 2:
    E-------------------
    B-------------------
    G-------------------
    D-------------------
    A-5-5/8-8-8/11-9-777
    E-3-3/6-6-6/9--7-555…
  • Tuning: Normal
    
    Riff 1:
    E------------------------------------------
    B------------------------------------------
    G------------------------------------------
    D--------------------------------------2--2
    A------------------------5-4-----------2--2
    E-0-5-4-00-5-4-00-5-4-00----…
  • Tuning: normal
    
    Riff 1:
    E--------------------------------------------|
    B--------------------------------------------|
    G--------------------------------------------|
    D-77777777--------5555-3333 x's 6---3-3-5555-|
    A-55555555-333333-3333-1111---------1-1-3333-|
    E----------111111----------------------------|
    
    Then…
  • Tuning: normal
    
    riff 1:  Part A                     Part B
    E--------------------------------|------
    B--------------------------------|------
    G--------------------------------|------
    D--------------------------------|-55-77
    A-5-3-33-3-4-3-33-3-4-3-33-3-4-3-|-33-55
    E-3-1-11-1-2-1-11-1-2-1-11-1-2-1-|------
    
    Riff…
  • Tuning: normal
    
    Riff 1:
    E-------------------------------------------|
    B-------------------------------------------|
    G-------------------------------------------|
    D-22222-777777-777777-22222-----------------|
    A-22222-555555-555555-22222-44-4-4-44-------|
    E-00000---------------00000-22-2-2-22…
  • Tuning: Normal
    
    Riff 1:
    E-------------
    B-------------
    G-------------
    D----------12~
    A----7--------
    E-55-5-55-----
    pm..   ..
    
    Riff 2:
    E--------
    B--------
    G--------
    D-222----
    A-222-333  x's 8
    E-000-111
    
    Riff 1
    
    Riff 2 x's…
Наверх