Аккорды «Santana»

Santana
Карлос Сантана (исп. Carlos Augusto Alves Santana, родился 20 июля 1947 года в городке Аутлан де Наварро) — американский гитарист мексиканского происхождения, лауреат многочисленных премий «Грэмми», который приобрёл известность на рубеже 1960-х и 1970-х с такими классическими номерами, как «Black Magic Woman». В 1999 году порядком подзабытый музыкант неожиданно вернулся на вершину поп-чартов с альбомом «Supernatural» («Грэмми» за лучший альбом года), который содержал суперхиты «Smooth» и «Maria… Читать полностью... Карлос Сантана (исп. Carlos Augusto Alves Santana, родился 20 июля 1947 года в городке Аутлан де Наварро) — американский гитарист мексиканского происхождения, лауреат многочисленных премий «Грэмми», который приобрёл известность на рубеже 1960-х и 1970-х с такими классическими номерами, как «Black Magic Woman». В 1999 году порядком подзабытый музыкант неожиданно вернулся на вершину поп-чартов с альбомом «Supernatural» («Грэмми» за лучший альбом года), который содержал суперхиты «Smooth» и «Maria Maria». В последние годы записывается с такими звездами, как Шон Пол и Шакира. Биография Когда Карлосу исполнилось пять лет, его отец, профессиональный скрипач Хосе Сантана, счёл своим долгом обучить старшего сына основам теории музыки и игре на скрипке. В 1955 году семья Карлоса перебирается из Аутлана в Тихуану, где кипела музыкальная жизнь в стиле рок-н-ролл. Сантана-младший быстро уловил, что одна народная музыка мало способствует окрылению души и наполнению кармана. Восьмилетний мальчик взял в руки гитару, на которой начал учиться играть с помощью отца. Освоив азы игры, он стал подражать Би Би Кингу, Джону Ли Хукеру (с которым он впоследствии сделает несколько записей) и Ти-Боун Уокеру. По таланту ученик мало уступал учителям, и уже через пару лет его пригласили в местную команду «TJ’S». Родители не возражали, так как заработок сына существенно пополнял семейный бюджет. Играя в местных группах, Карлос начал обращать на себя внимание красивой игрой, недюжинной выдумкой и вкусом. Через какое-то время семья переезжает в Сан-Франциско, обрушивший на Сантану море новой музыки. Карлос чутко впитывал различные музыкальные течения, разрабатывая и углубляя свой собственный стиль игры на гитаре. Окончив в 1966 году школу, он почувствовал себя достаточно опытным и собрал собственный коллектив Сантаны «Blues Band». Группа держалась на самом Сантане и поющем клавишнике Греге Роли. Их дебют состоялся в знаменитом зале «Филлмор Уэст». Через два года музыканты сократили название до более удобного «Santana». Это имя все чаще стало мелькать в ряду с именами грандов блюза. Первой пластинкой с его участием стал концертный альбом «The Live Adventures Of Al Kooper And Michael Bloomfield» (1969). Волна популярности этого состава группы росла вплоть до исторического фестиваля в Вудстоке в 1969 году, где полумиллионная аудитория была сражена ураганной композицией «Soul Sacrifice». В ноябре того же года выходит первый альбом Santana с одноименным названием. В нем причудливым образом смешаны рок-музыка и латиноамериканские ритмы. Стиль игры, продемонстрированный в этом альбоме, стал визитной карточкой Сантаны. Второй диск — «Abraxas» (1970) — моментально возглавил американский хит-парад. В него вошли классическая композиция Тито Пуэнте «Oye Como Va», а также бессмертная «Black Magic Woman», заставившая в версии Сантаны забыть о её авторе, великом Питере Грине. К моменту записи следующего альбома Карлос стал доминировать в составе. А в декабре 1971-го Роли и Шон расстались с ним. Диск «Santana III» (1971) отметил длительный перерыв в концертной деятельности группы. В сентябре 1972 года Карлос на Гавайях на пару с певцом и барабанщиком Бадди Майлзом отыграл концерт, вылившийся в пластинку «Live!». За ней последовал выдержанный в том же духе «Caravanserai» — произведение настолько цельное, что лишь немногие обратили внимание на то, что разные композиции записывались разными музыкантами. Смены в составе довели до того, что как-то раз перед концертом в знаменитом Мэдисон-Сквер Гарден у группы не оказалось перкуссиониста. Один из зрителей, Джеймс Льюис, предложил свои услуги — и получил работу. С солистом Леоном Томасом Сантана отправился в масштабный тур, фрагменты которого составили тройной концерт «Lotus» (1975). В апреле 1973 года Сантана женился. Его супруга Урмила была привержена учению гуру Шри Чинмоя, — Карлос увлекся индуизмом и вскоре познакомился с другим учеником Чинмоя, Джоном МакЛафлином. Дуэт повёрнутых на джаз-роке индуистов был неизбежен: инструментальная программа «Love Devotion Surrender», как ни странно, понравилась публике. Очередной инструментальный опус «Illuminations» (1974) — плод сотрудничество гитариста с ещё одной поклонницей Чинмоя, Элис Колтрейн, мог оказаться роковым: эксперименты Карлоса слушателям уже надоели. Группа предприняла попытку наверстать упущенное. Однако пластинка «Borboletta» не снискала особой популярности. Тогда за дело взялся приятель музыкантов Билл Грэхем, ставший их менеджером. И дело пошло на поправку. Ещё одна смена певца — им стал Грег Уокер, и более блюзовый альбом «Amigos» (1976) вернул группе былые позиции. 1977 год принес сразу две программы: «Festival» и «Moonflower». В 1978 году Сантана двинулся в большое турне, начав с фестиваля «California Jam II». Второму фестивалю было далеко до первого, но наличие в его программе Сантаны обеспечило 250 тысяч зрителей. Проехавшись по Новому и Старому Свету, группа записала диск «Inner Secrets», примечательный креном в сторону стиля диско. В это же время Карлос приступает к сольному творчеству, но альбом «Golden Reality» (1979) оказался малоуспешным. Вслед за ним Сантана выпустил ещё один двойной альбом «The Swing Of Delight» (1980) — инструментальный джаз-роковый опус. Затем последовала программа «Zebop!» (1981), в считанные месяцы ставшая «золотой». Участие команды Карлоса в трехдневном «U. S. Festival», полном суперзвезд, усилило интерес к коллективу и обеспечило успех диска «Shango». В следующем году Сантана подарил поклонникам крепкий сольный альбом «Havana Moon». Следующий альбом «Beyond Appearances» (1985) был откровенно слабым, но не пошатнул репутацию гитариста, приглашённого на знаменитый фестиваль «Live Aid». В рамках гастрольного тура летом 1987 года Santana побывали в Москве, где выступили на концерте за мир во всем мире. В конце того же года вышел инструментальный сольный альбома «Blues For Salvador», принесший автору «Grammy». Даже после выхода «отмороженного» альбома «Spirits Dancing In The Flesh» (1990) переполненные залы на концертах не уменьшились. Пиком гастролей в 1991 году стал фестиваль «Rock In Rio II». В том же году умер Билл Грэхем. Не уверенные более в своём будущем, музыканты разорвали контракт с «Columbia». В 1993 году Сантана предпринял турне «Sacred Fire». В его самый разгар на рынке появилось «Milagro», проникнутое христианским духом (влияние второй жены Карлоса). Летом 1995 года Сантана снова отправляются в дорогу. В том же году появился тройной бокс-сет «Dance Of The Rainbow Serpent», охватывающий всю карьеру коллектива — от вудстокской версии «Soul Sacrifice» до «Chill Out». В 1997 году маэстро отметил полувековой юбилей. А в 2001 году ему наконец-то воздали по заслугам. Власти родного городка устроили большой праздник в честь музыканта. Сантана был награжден ключами от города, а одна из крупных улиц названа его именем. «Я глубоко тронут тем, что мой город оказал мне такую честь», — сказал растроганный 53-летний гитарист. Скрыть...
Популярные аккорды Santana:
алфавиту | просмотрам | случайно
  • Intro: Am F E E7 - 3 times
    Am F E E7
    Man it’s a hot one like seven inches
    Am F E E7
    from the midday sun Well I hear you whisper
    Dm7 F/C Bm7ъ5 E7
    and the words melt everyone but you
    Am F E E7
    stay so cool
    Am F E E7 Am F E…
  • Intro:
    Acoustic Guitar
    Repeat 2x
               Am           A                 C
    E|--------------------------------------------|
    B|---1-1---0-1-1-1-1----1-1-1---3-1-0-0-------|
    G|---2-2---2-2-2-2-0----0-0-0---0-0-0-0-------|
    D|---2-2---2-2-2-2-2----2-2-2---2-2-2-2-------|
    A|-----------------------3----3-3-3---3-3-3-3-|
    E|--------------------------------------------|…
  • intro
           
    E-------------------------------------------------------------------------------
    B---------------------------------------10-------------------------10-----------
    G--10~~-7-7/97~~-10h12p10~~-7-7/97~~------12-10p9~--12-10-97~-------12-109--
    							.....
    E----------------------10--------10----10---------------------------------------
    B-------------------10--------------13----13-10-13^(15)^13p10---13^(15)~~------…
  • Intro: Classical guitar
    E|------------------------|
    B|------------------------|
    G|------13h14p13----------|
    D|-14h15--------15p14-----|
    A|------------------------|
    E|------------------------|
    
    E|-------------------------------------------------------------|
    B|-------------------------------------------------------------|
    G|------13h14-13h14-13h14p13-----------------------------------|
    D|-14h15---------------------14h15-14h15p14--12h14p12----------|
    A|----------------------------------------------------15-------|
    E|-------------------------------------------------------------|
    
    Electric
    E|----------------------------------------------|
    B|-13-----------------------13-12---------------|
    G|----------------------------------------------|
    D|------------14-15-----------------------12-14-|
    A|----------------------------------------------|
    E|----------------------------------------------|
    
    E|-------------------------------------------------------------|
    B|-------------------------------------------------------------|
    G|-14------------------------14-13-----------------------------|
    D|----------12---------12-15--------15-14--12-----12-14-12-14--|
    A|-------15---------14-------------------------15--------------|
    E|-------------------------------------------------------------|
    
    E|-------------------------------------------------------------|
    B|-13-----------------------13-12------------------------------|
    G|--------------------------------------------12---------------|
    D|------------14-15------15----------------12----12-14-14-14---|
    A|-------------------------------------------------------------|
    E|-------------------------------------------------------------|
    
    E|-------------------------------------------------------------|
    B|-------------------------------------------------------------|
    G|-14-------------------14-13h14p13----------------------------|
    D|--------12------12-15--------------15-14--12-----12-14-12-14-|
    A|-----15------14-------------------------------15-------------|
    E|-------------------------------------------------------------|
    
    E|-------------------------------------------------------------|
    B|-------------------------------------------------------------|
    G|------------------------12-----------------------------------|
    D|----14----14-12--12--15----14--------12-14-12--12------12----|
    A|-15----15----------------------12-15---------------14-----15-|
    E|-------------------------------------------------------------|
    
    E|-------------------------------------------------------------|
    B|-------------------------------------------------------------|
    G|---------------------12--------------------------------------|
    D|---14----14-12-14-15----14p12h14-------12-14-12--------------|
    A|15----15-------------------------12-15----------14-11---14-12|
    E|------------------------------------------------------12-----|
    
    E|-------------------------------------------------------------|
    B|-------------------------------------------------------------|
    G|--------------------------------------------12---------------|
    D|---------------------------12-----12-14--------15-14---------|
    A|-11-12-14--12-14-15--14-15-----15----------------------------|
    E|-------------------------------------------------------------|
    
    E|-------------------------------------------------|
    B|-13-----------------------13-12------------------|
    G|-------------------------------------------------|
    D|------------14-15-----------------------12-14-14-|
    A|-------------------------------------------------|
    E|-------------------------------------------------|
    
    E|-------------------------------------------------------------|
    B|-------------------------------------------------------------|
    G|-14-------------------------14-13----------------------------|
    D|----------12----------12-15--------15-14--12-----12-14-12-14-|
    A|-------15----------14-------------------------15-------------|
    E|-------------------------------------------------------------|
    
    E|-------------------------------------------------------------|
    B|-13-----------------------13-12------------------------------|
    G|--------------------------------------------12---------------|
    D|------------14-15------------------------12----12-14-14-14---|
    A|-------------------------------------------------------------|
    E|-------------------------------------------------------------|
    
    E|-------------------------------------------------------------|
    B|-------------------------------------------------------------|
    G|-14----------------------14-13-------------------------------|
    D|--------12---------12-15--------15-12h14--12-----12-14-12-14-|
    A|-----15---------14----------------------------15-------------|
    E|-------------------------------------------------------------|
    
    E|-------------------------------------------------------------|
    B|-------------------------------------------------------------|
    G|------------------------12-----------------------------------|
    D|----14----14-12--12--15----14--------12-14-12----------------|
    A|-15----15----------------------12-15-----------14------14-12-|
    E|---------------------------------------------------15--------|
    
    E|-------------------------------------------------------------|
    B|-------------------------------------------------------------|
    G|---------------------12--------------------------------------|
    D|---14----14-12-14-15---14p12h14-------12-14-12---------------|
    A|15----15------------------------12-15----------14-11----14-12|
    E|-----------------------------------------------------12------|
    
    E|-------------------------------------------------------------|
    B|-------------------------------------------------------------|
    G|----------------------------12----------14-------------------|
    D|-------12-14-12-------12-14----15-14-15----15-14h15p14p12h14-|
    A|-12-15-------------15----------------------------------------|
    E|-------------------------------------------------------------|
    
    E|-------------------------------|
    B|-------------------------------|
    G|-------------------------------|
    D|-------12-14-12----------------|
    A|-12-15-----------14--11-----14-|
    E|-------------------------12----|
    
    E|-------------------------------------------------------------|
    B|----------------------------------------------------------12-|
    G|------------------------------------------12----------14-----|
    D|---------------------------12-----12-14------15-14-14--------|
    A|-11-12-14--12-14-15--14-15-----15----------------------------|
    E|-------------------------------------------------------------|
    
    E|-------------------------------------------------|
    B|-13-----------------------13-12------------------|
    G|-------------------------------------------------|
    D|------------14-15-----------------------12-14-14-|
    A|-------------------------------------------------|
    E|-------------------------------------------------|
    
    E|-------------------------------------------------------------|
    B|-------------------------------------------------------------|
    G|-14------------------14-13h14p13-----------------------------|
    D|-------12------12-15--------------15-12h14-12----12-14-12-14-|
    A|----15------14--------------------------------15-------------|
    E|-------------------------------------------------------------|
    
    faster…
  • h - hammer on
    p - pull off
    b - bend string up
    r - release bend
    / - slide up
     - slide down
    
    
    E-----------------------------------------------------------
    B-----------------------------------------------------------
    G-7--5---5h7-3---3-2---2-3-2-0-3p2p0---0-0h3---10/12-12-----
    D-----------------------------------------------------------
    A-----------------------------------------------------------
    E-----------------------------------------------------------
    
    E-----------------------------------------------------------
    B------------------------------------15-16-15---------------
    G-12-14---14-15---15-17---17-19-17--------------------------
    D-----------------------------------------------------------
    A-----------------------------------------------------------
    E-----------------------------------------------------------
    
    E-----------------------------------------------------------
    B-15-16-15-18-16-15-13-15-13-15-16-15-15b16r15--------------
    G-----------------------------------------------------------
    D-----------------------------------------------------------
    A-----------------------------------------------------------
    E-----------------------------------------------------------…
  • Note: For the first bar of the first verse don't play the Lead note
    into the E Chord.
             
                VERSE
                  Tell..                                         
    G|----------|------------------|-------------------|
    D|----------|*----------------*|---------------5---|
    A|----------|*--7--7----55-5--*|--7--7----55-57-75-|
    E|-12/(14)-|--7-------5-------|-7-------5---------|…
  • Tuning: E A D G
    Moderatlty slow 1=76
    
    G[[-------------|---------|---------3-2-|-1---1----1-------]
    D[[-------------|---------|-1--1-1------|-------1----------]
    A[[-------------|-1---1-1-|-------------|------------------]
    E[[-1----1-1--1-|---------|-------------|------------------]
    
    G[-0----0--0-----|-----------|--------------|------------]]
    D[-------------0-|-----------|--------------|------------]]
    A[---------------|-----------|-3---3--------|--3---------]]
    E[---------------|--3---3--3-|--------3---3-|------------]]…
  • Tuning : E A D G 	Time Signature: 4/4
    
    First 8 bars = intro
     |       |       |       |        |       |       |       |        
    |------------7-------------------|--------------------------------|
    |5---------------------------5---|--------------------------------|
    |------------------------------8-|6-----------8---------------6---|
    |--------------------------------|--------------------------------|…
  • My Notation is:
    
    h=hammer on
    p=pull-off
    /=slide up
    =slide down
    ~=vibrato
    br=bend and release
    
    1|--------------------------|-----------------------------|
    2|--------------------------|-----------------------------|
    3|---------12-12---14-14-~~~|-12h14--12-------------------|
    4|-14-14--------------------|------------12--14--12h14-~~~|
    5|--------------------------|-----------------------------|
    6|--------------------------|-----------------------------|
    
    1|-------------------------------|-----------------------------|
    2|-------------------------------|-----------------------------|
    3|-----------12-12--14--12h14-~~~|-12h14--12-------------------|
    4|-14-14-14----------------------|------------12--14--12h14-~~~|
    5|-------------------------------|-----------------------------|
    6|-------------------------------|-----------------------------|
    
    1|---------------------------------|--------------------|
    2|---------------------------------|--------------------|
    3|-12h14--12-----9-7~~~------------|-7/97--------------|
    4|------------7----------h7h10-----|--------7--10-10-~~~|
    5|---------------------------------|--------------------|
    6|---------------------------------|--------------------|
    
    1|-------------------------|-----------------------------|
    2|-------------------------|-----------------------------|
    3|---------12-12--14-14-~~~|-12h14--12-------------------|
    4|--14-14------------------|------------12--14--12h14-~~~|
    5|-------------------------|-----------------------------|
    6|-------------------------|-----------------------------|
    
    1|-------------------------------|-----------------------------|
    2|-------------------------------|-----------------------------|
    3|-----------12-12--14--12h14-~~~|-12h14--12-------------------|
    4|-14-14-14----------------------|------------12--14--12h14-~~~|
    5|-------------------------------|-----------------------------|
    6|-------------------------------|-----------------------------|
    
    1|-------------------------------------|--------------------|
    2|-------------------------------------|--------------------|
    3|-12h14--12-----9-7~~~/97------------|-7/97--------------|
    4|------------7--------------h7h10-----|--------7--10-10-~~~|
    5|-------------------------------------|--------------------|
    6|-------------------------------------|--------------------|
    
    1|---------------------|
    2|----12br-------------|
    3|-12------14br--14-14-|
    4|---------------------|
    5|---------------------|
    6|---------------------|
    
    1|-----------------------------|
    2|-----------------------------|
    3|-12h14--12-------------------|
    4|------------12--14--12h14-~~~|
    5|-----------------------------|
    6|-----------------------------|
    
    1|---------------------|
    2|----12br-------------|
    3|-12------14br--14-14-|
    4|---------------------|...їїї???...
    5|---------------------|
    6|---------------------|
    
    1|-------------------------------------|--------------------|
    2|-------------------------------------|--------------------|
    3|-12h14--12-----9-7~~~/97------------|-7/97--------------|
    4|------------7--------------h7h10-----|--------7--10-10-~~~|
    5|-------------------------------------|--------------------|
    6|-------------------------------------|--------------------|…
  • E, A, D, G
    
    Intro:
    Play 4 times.
    
    Fig. 1
    G ---------------------|---------------
    D ---------------------|---------------
    A ----0-----0----0-----|-0-----0----0--
    E -–------0---0------0-|----0----0-----
    
    Fig. 2
    G --------------------|--------------------|------------------
    D…
  • h=hammer on
    p=pull-off
    /=slide up(or fast pick)
    =slide down
    ^=bend full
    b=bend half(rarely used)
    ^r or br=bend and release  
    
    Intro
    -|------------------------------------------------------------------
    -|-----------------------------6------------------------------------
    -|-------------------------------8----------5-/5----8-7------5^r----
    -|-5-7-8----10^r-7----5-7-8--------7----7-8-------------8--------5--
    -|------------------------------------------------------------------
    -|------------------------------------------------------------------…
  • Tablature explanation:
    h = hammer on
    p = pull off
    ^ = bend two semitones
    b = bend one semitone
    r = release bend
    / = slide up
     = slide down
    //////// = turbo pick the preceding note
    (is there a proper name for this teqnique?)
    
    Intro
    
    -|----------------------------7-6-----------------------------|
    -|--------------------------7------7--------------------------|
    -|-----4h7p4---4---------/7----------9--7-9^9^--------9-6-7-9-|
    -|-4h7-------7------------------------------------------------|
    -|------------------------------------------------------------|
    -|------------------------------------------------------------|…
  • Symbols:
    
    h=hammer-on
    p=pull-off
    /=slide-up
    ()=let ring
    Tr=Trill
    x=Blocked string
    
    Tuning: Standard
    
    INTRO:
    e|-8-8-8---8-8-8---6-6-----------------------8----------|
    B|---------------------8---------6-8-8---6---8--8h10p8--|
    G|-----------------------8-8-8-8-------------9----------|
    D|------------------------------------------10----------|
    A|------------------------------------------------------|
    E|------------------------------------------------------|…
  • Intro part:
    
    E|---------0------------
    B|-------0------7-7----7
    G|-----7------7------7--
    D|---5------------------
    A|-7--------------------
    E|----------------------
    
    Then, this part is next(this is the melody):
    E|------12-14-15p14----------------|-------12-14-15p14-----------------|
    B|12-15-------------15-15-12-15-12-|-12-15-------------15-15-12-/17-12-|
    G|---------------------------------|-----------------------------------|
    D|---------------------------------|-----------------------------------|
    A|---------------------------------|-----------------------------------|
    E|---------------------------------|-----------------------------------|
    
    Chords…
  • Tablature Explanation:
    h=hammer-on
    p=pull-off
    /=slide up or indicates rapid picking
    =slide down
    b=bend «
    ^=bend full
    br, ^r=bend &release
    
    Intro
    |-----------------------------------------------|
    |-8-------------------8-------------------------|
    |-----7-------------7---7-7h8p7-----------------|
    |---------10---8-10-------------10-8-10^r^r-----|
    |-----------------------------------------------|
    |-----------------------------------------------|…
  • intro (x2)
    G|0-------------------0-------------------7---------7-----------------------7-----|
    D|5----9---------7----5----9---------7----0----7----0--------7----9----7----0-----|
    A|----------7----0--------------7----0---------0-------------0---------0----------|
    E|----------0-------------------0-------------------------------------------------|…
  • Tablature Explanation:
    h=hammer-on
    p=pull-off
    /=slide up or indicates rapid picking
    =slide down
    b=bend 1 semitone
    ^=bend 2 semitones
    ^^=bend 4 semitones (used once)
    br, ^r=bend &release
    Jam key= E minor
    
    Intro
    |-----------------------------10----------------10-------10-12p10h12-----|
    |-----------------------10h12----10-------10h12----10-12-----------------|
    |------------------------------------------------------------------------|
    |------------------------------------------------------------------------|
    |------------------------------------------------------------------------|
    |------------------------------------------------------------------------|…
  • Guitar 1(this is for Welcome album version):
    e|---------------------------------------|
    B|---------------------------------------|
    G|---------------------------------------|
    D|-5--5-8-7---5---5-8-7---5---3-3---3-5--|
    A|----------8-----------8---------5------|
    E|---------------------------------------|
    
    e|-----------------------------------------------------------|
    B|-----------------------------------------------------------|
    G|-----------------------------------------------------------|
    D|-5--5-8-7---5---5-8-7--5--10-8--7-5---7-5-3-2--------------|
    A|----------8-------------------------8---------5---3-3-1-3--|
    E|-----------------------------------------------------------|
    
    Guitar…
  • Tablature Explanation:
    h=hammer-on
    p=pull-off
    /=slide up or indicates rapid picking
    =slide down
    b=bend «
    ^=bend full
    br, ^r=bend &release
    
    Intro. not sure what instrument this is
    |----------------------------------------------------|
    |-----3----------------------------3--------3--------|
    |---3---5------------------------3---5---------------|
    |-5----------------3-5---------5----------------3-5--|
    |----------------5----------------------------5------|
    |----------------------------------------------------|…
  • h = hammer on
    p = pull of
    b = bend
    ~ = vibrato
    
    Intro: 0:03
    |-12------------------------------|
    |----12-10----10-8h10-10b11b10b11-|
    |----------12---------------------|
    |---------------------------------|
    |---------------------------------|
    |---------------------------------|
    
    |-10-12-15-12b13b12b13-15b17b15-|
    |-------------------------------|
    |-------------------------------|
    |-------------------------------|
    |-------------------------------|
    |-------------------------------|
    
    |-12-----------------------|
    |----12p10-10------10------|
    |-------------12-9----9-12-|
    |--------------------------|
    |--------------------------|
    |--------------------------|
    
    |----------------------|
    |----------------------|
    |-9--------------------|
    |---12-9h12p9-----9----|
    |--------------12---12-|
    |----------------------|
    
    Verse:…
  • INTRO
    
    E|------------------------|-------------------------|
    B|------------------------|-------------------------|
    G|---9--7--9--7--9--7—9--|--7-7--5--7--5--7--5--2-5|
    D|------------------------|-------------------------|
    A|------------------------|-------------------------|
    E|------------------------|-------------------------|
    
    
    E|------------------------|--------7-8-7-5~-----5--8--8--10--|
    B|------------------8-8---|---5--8-----------8---------------|
    G|---7--5--7--5--7---—----|----------------------------------|
    D|------------------------|----------------------------------|
    A|------------------------|----------------------------------|
    E|------------------------|----------------------------------|
    
    
    E|--12-10--12-10--12-10--12~-|--8--10-8--10-8--10-8---5--8-|
    B|---------------------------|-----------------------------|
    G|---------------------------|-----------------------------|
    D|---------------------------|-----------------------------|
    A|---------------------------|-----------------------------|
    E|---------------------------|-----------------------------|…
  • Chords verse: Gm - C - A - D..(play the A and the D not with the barre
    style, play it on the 4 highest strings...*D/G/B/E*....)
    
    chords ref.: Em7 - Bm7 - Em7 - Bm7 - A - D
    
    Shades Of Time
    
    intro: I don't have the tools to…
  • Symbols used:
    
    h= hammer-on
    /= slide-up
    = slide-down
    p= pull-off
    ////= tremolo picking
    ~~~= left hand vibrato
    
    
    e|-1-----|
    B|----3--|
    G|-------|
    D|-------|
    A|-------|
    E|-------|
     0:12…
  • Legendary symbols
    
                     ^=bend
                     r=release
                     p=pull off
                     h=hammer on
                     /=slide up
                     =slide down
    
    
    Chords
    |----------|         |----------|…
  • Apache:
    
    E--------------------------------------------------------|
    B-------8-8-10-8/10-------8/10-8-------------------------|
    G-7/9-9--------------------------7-7/9-9-----------------|
    D--------------------------------------------------------|
    A--------------------------------------------------------|
    E--------------------------------------------------------|
    
    
    E----------------------------------10-10-12-10/12--------|
    B-------8-8-10-8/10-------13-13-13-----------------------|
    G-9-9-9--------------------------------------------------|
    D--------------------------------------------------------|
    A--------------------------------------------------------|
    E--------------------------------------------------------|
    
    
    E--------------------------------------------------------|
    B----13-12-12/13-12-10-------8/9-7-----------------------|
    G-12-------------------------------7-9-9-----------------|
    D--------------------------------------------------------|
    A--------------------------------------------------------|
    E--------------------------------------------------------|
    
    
    E------------------------------8-10-8-10-10-10-12-10/12--|
    B---13-12-10----10-13-10---------------------------------|
    G-9----------12------------------------------------------|
    D--------------------------------------------------------|
    A--------------------------------------------------------|
    E--------------------------------------------------------|
    
    
    E---------------------------------------------------------|
    B-8/10-8--------------------------------------------------|
    G--------7-7/9-7-------7/9-7------------------------------|
    D----------------------------7/10-10----------------------|.......Smooth......
    A---------------------------------------------------------|
    E---------------------------------------------------------|…
  • Intro: Nylon String Acoustic
    E|-0----------------------1-----------------0----------------------------------------|
    B|-1----------------------1-----------------1-------------------------5-6-5-------5--|
    G|-2----------------------2-----------------2---------------4-5-7-5-7-------7-5-7----|
    D|-2--2-2-3-0h2-0h2-0-----3-------------0---2--2-3-2-0----7--------------------------|
    A|-0------------------3---3--2-3s5--2-3-----0----------3-----------------------------|
    E|-----------------------1-----------------------------------------------------------|…
  • Symbols:
    
    h=hammer-on
    p=pull-off
    ~=left hand vibrato
    b=bend
    r=release bend
    []=bend before picking
    
    INTRO:
    e|---------------|
    B|-8h10----------|----> This is a slow hammer-on
    G|------7h9p7h9--|
    D|---------------|
    A|---------------|
    E|---------------|
    
    e|------------------------------------------------------------|
    B|-10b12r10--8h10p8------8-8------------8-12p10--8---10p8-----|
    G|--------------------9-------7h9--5h7-------------9-------9--|
    D|------------------------------------------------------------|
    A|------------------------------------------------------------|
    E|------------------------------------------------------------|
    
    e|-----------------|
    B|-8-12-8----------|
    G|--------7h9p7h9--|
    D|-----------------|
    A|-----------------|
    E|-----------------|
    
    e|--------------------------[11]b12r11b12~~~---10p7--|
    B|-10b12r10---8h10p8----8----------------------------|
    G|-------------------9-------------------------------|
    D|---------------------------------------------------|
    A|---------------------------------------------------|
    E|---------------------------------------------------|
    
    
    CHORDS…
  • Intro
    Fm
    --------------------------------------------------------------------------------------------------------|
    -[16b18~18~18~18~18~18~18~18~18~18~18~18~18~18-~18~18~18~18~18~18~18~18~18~18~18~18~18~18~18~18]-16b18~-|
    --------------------------------------------------------------------------------------------------------|
    --------------------------------------------------------------------------------------------------------|
    --------------------------------------------------------------------------------------------------------|
    --------------------------------------------------------------------------------------------------------|
    
    (riff…
  • Acoustic
    
    
    |----11-10-8-10-8---8--------------|
    |----------------------8-8---------|
    |----------------------------------|
    |----------------------------------|
    |----------------------------------|
    |----------------------------------|
    
    |--3-4-3---------------8-----------------|
    |--------6-4-6----------8-6-8------------|
    |----------------------------------------|
    |----------------------------------------|
    |----------------------------------------|
    |----------------------------------------|
    
    |----11-10-8-10-8---8--------------|
    |----------------------8-8---------|
    |----------------------------------|
    |----------------------------------|
    |----------------------------------|
    |----------------------------------|
    
    |---11-10-8-10-8---8------------------------------------------------|
    |---------------------8-8------8-9-8-6-8--------8----8--------------|
    |---------------------------------------------8---8-----------------|
    |-------------------------------------------------------------------|
    |-------------------------------------------------------------------|
    |-------------------------------------------------------------------|
    
    |---------------------------|
    |-----8-9-8-6-8---6----6----|
    |------------------7----7---|
    |---------------------------|
    |---------------------------|
    |---------------------------|
    
    |-------------------------------11-10-8-10-8---8------|
    |--------8-9-8------------------------------------8-8-|
    |-----------------------------------------------------|
    |-----------------------------------------------------|
    |-----------------------------------------------------|
    |-----------------------------------------------------|
    
    |----------------------------------------------------------|
    |------8-9-8-6-8---8----8-----------8-9-8-6-8----6---6-----|
    |----------------8----8------------------------7--7--------|
    |----------------------------------------------------------|
    |----------------------------------------------------------|
    |----------------------------------------------------------|
    
    
    |-------------|
    |-----8-9-8---|
    |-------------|
    |-------------|
    |-------------|
    |-------------|
    
    |-----------6----------------------------------------|
    |---6--8--9----9-8-9-7-6-7-6-----6------8--8---------|
    |-----------------------------8--------------8-------|
    |----------------------------------------------------|
    |----------------------------------------------------|
    |----------------------------------------------------|
    
    
    |----11-10-8-10-8---8---------------|
    |------------------------8-8--------|
    |-----------------------------------|
    |-----------------------------------|
    |-----------------------------------|
    |-----------------------------------|
    
    3x
    |----------------------------------------|
    |----------------------------------------|
    |--------10-12-10-12-10-12---------------|
    |---13-----------------------------------|
    |----------------------------------------|
    |----------------------------------------|
    
    
    |----11-10-8-10-8---8--------------|
    |-----------------------8-8--------|
    |----------------------------------|
    |----------------------------------|
    |----------------------------------|
    |----------------------------------|…
  • SYMBOLS
    h = hammer on
    p = pull off
    / = slide up
    
    e |----------------------------------------------------------------------------------|
    B |--------5h6---5---6---6h8--8----6----5--------------------------------------------|
    G…
  • Am                           C 
    Like a gift from the heavens, it was easy to tell, 
        G                              D
    It was love from above, that could save me from hell,
    She had fire in her soul it was easy to see,
    how…
  • Tablature Explanation:
    h=hammer-on
    p=pull-off
    /=slide up
    =slide down
    b=bend half
    ^=bend full
    br, ^r=bend & release
    
    Intro
    
    |--------------------------|
    |-10^-------7--------------|
    |-------------9^-9-7-------|
    |--------------------------|
    |--------------------------|
    |-(0:06)-------------------|…
  • Tablature Explanation:
    h=hammer-on
    p=pull-off
    /=slide up or indicates rapid picking
    =slide down
    b=bend «
    ^=bend full
    br, ^r=bend &release
    
    Intro
    |-------------10----------------------------------------------
    |-------10-11----11-10--13-11-10--11-10--10h11-10-------------
    |----12--------------------------------------------12-12------
    |-12----------------------------------------------------------
    |-------------------------------------------------------------
    |-------------------------------------------------------------…
  • Tablature explanation:
    h=hammer-on
    p=pull-off
    ^=bend full
    r=release bend
    /////// indicates rapid picking
    
    
    Intro: classical guitar
    |------------------------------------------------------|
    |------------------------------------------------------|
    |------------------------------------------------------|
    |---0-2-3---------2-2-2-----------2-3-2-2h3p2----------|
    |-0-----------0-------------0-4-5------------4h5-------|
    |---------------4--------------------------------------|…
  • Tablature Explanation:
    h=hammer-on
    p=pull-off
    /=slide up or indicates rapid picking
    =slide down
    b=bend «
    ^=bend full
    br, ^r=bend &release
    
    
    Intro
    |-------------------------------------------------
    |------------------10-10-12-10h12-----------------
    |------9-9---9-9-9-----------------------/11-9----
    |-9h11--------------------------------------------
    |-------------------------------------------------
    |-------------------------------------------------…
  • Symbols:
    
    h=hammer-on
    p=pull-off
    /=slide-up
    =slide-down
    ~=left hand vibrato
    b=bend
    
    e|---------------|--------------------8-10--|
    B|---------------|-------8-10--8h10p8-------|
    G|-7h9--7-5------|-7h5-5--------------------|
    D|----------7-5--|--------------------------|
    A|---------------|--------------------------|
    E|---------------|--------------------------|…
  • intro/first segment 
    G|-------------------------------------------------------------------------------------------
    D|-------5640564-------5640564-------5640564-------5640564-------5640564-------5640564-------
    A|-------------------------------------------------------------------------------------------
    E|23--23--------23--23--------23--23--------23--23--------23--23--------23--23--------23--23-
    
    
    -----------------------------------------------------------------------------------------------
    5640564----------------------------056405640564056405640564056405640564056405640564056405640564
    --------------022033044055066077088------------------------------------------------------------
    -------23--033---------------------------------------------------------------------------------
    
    
    ------------|------------------------------------------------------------------------------|
    -0446---6--|----4--42--------4--42--------4--42--------4--42--------4--42--------4--42----|
    ------------|---4-----4------4-----4------4-----4------4-----4------4-----4------4-----4---|
    ------------|-24-------44--24-------44--24-------44--24-------44--24-------44--24-------44-|…
  • Tablature Explanation:
    h=hammer-on
    p=pull-off
    /=slide up or indicates picking
    =slide down
    b=bend «
    ^=bend full
    br, ^r=bend &release
    
    Intro
    Classical Guitar 
    |---------------------------------------------------------------------|
    |------------------------10----------------------------------------10-|
    |----------7h9-7-9-----9----9-9-7-9-7-----9p7---------7----------9----|
    |---7h9h10------------------------------------10-10-9---9-10----------|
    |-7-------------------------------------------------------------------|
    |---------------------------------------------------------------------|…
  • Intro
    
     (0:17)     (0:19)           (0:20)
    E-12b------10-8-10-----------------15--13-12---------------
    B------------------8---------12-15-------------------------
    G--------------------------------------------------------
    D--------------------------------------------------------
    A--------------------------------------------------------
    E--------------------------------------------------------…
  • | /  slide up
    |   slide down
    | h  hammer-on
    
    
    e|-----------------------------------------11--------------------------------|
    B|--------------------------------12-12-12----12-12-12-14----------12----12-14
    G|--8--6--h8-/9-8-/9--8--h9--11--------------------------11-11-11----13-----|
    D|---------------------------------------------------------------------------|
    A|---------------------------------------------------------------------------|
    E|---------------------------------------------------------------------------|
    
    e|----------------------------------11---------------------------------------|
    B|-12-12-------12----12-12-12-12-14----12-12------12--12-12-12-14------------|
    G|-------13-11----11-------------------------13-11--11------------11…
  • Symbols:
    
    h=hammer-on
    p=pull-off
    /=slide-up
    =slide-down
    ~=left hand vibrato
    
    
    e|------10--8-----------|-10-8----------|
    B|---10-------11-10~~~--|------11-10-8--|
    G|-7--------------------|---------------|
    D|----------------------|---------------|
    A|----------------------|---------------|
    E|----------------------|---------------|…
  • Symbols:
    
    h=hammer-on
    p=pull-off
    /=slide-up
    ~=left hand vibrato
    b=bend
    r=release bend
    ///=tremolo picking
    
    Electroacoustic guitar:
    e|-------------------|-------------------|
    B|-------------------|---8-6-------------|
    G|-5p4---4-5-7/9-7---|-7-----9p7-9-7/9---|
    D|-----7-------------|-------------------|
    A|-------------------|-------------------|
    E|-------------------|-------------------|…
  • Symbols:
    
    h=hammer-on
    p=pull-off
    /=slide-up
    =slide-down
    b=bend
    r=release bend
    []=bend before picking
    ~=Left hand vibrato   
    ///=tremolo picking
                       
    CHORDS FOR INTRO:
    
    Am:577555
    Em:022000
    
    1st SOLO:
    e|-------------------------|
    B|-12-13-12----10----------|
    G|----------12-----7/9-7--|
    D|-------------------------|
    A|-------------------------|
    E|-------------------------|
    
    e|----------------------[10]b12r10b12---10-12-15-12-10-----------|
    B|-12-12-13-12----10-----------------------------------13-12h13--|
    G|-------------12------------------------------------------------|
    D|---------------------------------------------------------------|
    A|---------------------------------------------------------------|
    E|---------------------------------------------------------------|
    
    e|----------------------------------|
    B|-12-13-12----10-------------------|
    G|----------12------7/9--9--7----7--|
    D|----------------------------10----|
    A|----------------------------------|
    E|----------------------------------|
    
    e|------------------------------------------|
    B|-12-13-15-13-12----12-13p12-10----10~~~---|
    G|----------------12-------------12---------|
    D|------------------------------------------|
    A|------------------------------------------|
    E|------------------------------------------|
    
    e|-------15-12-10-12-10--------|
    B|-10-13----------------13-12--|
    G|-----------------------------|
    D|-----------------------------|
    A|-----------------------------|
    E|-----------------------------|
    
    e|----------------|------12h13p12h13p12--|
    B|-8-8/10~~~p8----|-8-10-----------------|
    G|-------------9--|----------------------|
    D|----------------|----------------------|
    A|----------------|----------------------|
    E|----------------|----------------------|
    
    e|-------------------------------------------|
    B|-10--12-13p12h13p12h13p12h13--13-13p12h13--|
    G|-------------------------------------------|
    D|-------------------------------------------|
    A|-------------------------------------------|
    E|-------------------------------------------|
    
    e|-10p8h10p8h10p8h108h10--|
    B|------------------------|
    G|------------------------|
    D|------------------------|
    A|------------------------|
    E|------------------------|
    
    e|-8-10--8h10p8h10p8h10p8h10p8h10p8h10p8h10--|
    B|-------------------------------------------|
    G|-------------------------------------------|
    D|-------------------------------------------|
    A|-------------------------------------------|
    E|-------------------------------------------|
    
    e|----15-19----[19]b20r19b20-17-----------------|
    B|-17-------17------------------17-18p17-13-15--|
    G|----------------------------------------------|
    D|----------------------------------------------|
    A|----------------------------------------------|
    E|----------------------------------------------|
    
    e|-----------------------------------|
    B|-12-12-13-13-8/10~~~---------------|
    G|---------------------7/9~~~-7h9-7--|
    D|-----------------------------------|
    A|-----------------------------------|
    E|-----------------------------------|
    
    e|---------------------|-------------------------------|
    B|---8----13-12--------|-------1312-10------1312-10--|
    G|-9---9--------12b14--|-12--9----------12-9-----------|
    D|---------------------|-------------------------------|
    A|---------------------|-------------------------------|
    E|---------------------|-------------------------------|
    
    e|--------------------------|
    B|-[13]b15--12-13-12-13-12--|
    G|--------------------------|
    D|--------------------------|
    A|--------------------------|
    E|--------------------------|
    
    e|-10/12///----10-12-13-12----10-12--|
    B|----------13-------------13--------|
    G|-----------------------------------|
    D|-----------------------------------|
    A|-----------------------------------|
    E|-----------------------------------|
    
    e|-12-17~---12-17-12--17~--17-17--12-12-10-10----10/12-10-10----10--|
    B|--------------------------------------------13-------------13-----|
    G|------------------------------------------------------------------|
    D|------------------------------------------------------------------|
    A|------------------------------------------------------------------|
    E|------------------------------------------------------------------|
    
    e|-17-17-20p19h20p19h20p19h20p19h20p19h20p19h20p19h20--|
    B|-----------------------------------------------------|
    G|-----------------------------------------------------|
    D|-----------------------------------------------------|
    A|-----------------------------------------------------|
    E|-----------------------------------------------------|
    
    e|-20/22-20-19-20-19-15/17-17-17--|
    B|--------------------------------|
    G|--------------------------------|
    D|--------------------------------|
    A|--------------------------------|
    E|--------------------------------|
    
    e|-----------------------------------------------|
    B|-17-17-17-17-17--15/17-17--15/17-17--15/17-17--|
    G|-----------------------------------------------|
    D|-----------------------------------------------|
    A|-----------------------------------------------|
    E|-----------------------------------------------|
    
    e|--------------------------------------------------------------------------------|
    B|-15/17-17--15/17-17--15/17-17--15/17--17-17-17-17--17-17-17--17-17-17-17-17-17--|
    G|--------------------------------------------------------------------------------|
    D|--------------------------------------------------------------------------------|
    A|--------------------------------------------------------------------------------|
    E|--------------------------------------------------------------------------------|
    
    e|-12/17-17-12-17-12-17-12-17--|
    B|-----------------------------|
    G|-----------------------------|
    D|-----------------------------|
    A|-----------------------------|
    E|-----------------------------|
    
    e|-------------------------------|
    B|-13-13-13-13-13-13--13-13-13--|
    G|-------------------------------|
    D|-------------------------------|
    A|-------------------------------|
    E|-------------------------------|
    
    2nd…
  • Symbols:
    
    p=pull-off
    ()=let ring
    
    Tuning: Standard
            
                              
    e|--------------------------------------------------------------------|
    B|-(11)-9----8------(11)---9----8-----8--------8--------8-------------|
    G|--------10---8-------------10---8-----10p8-----10p8-----10p8---8-8--|
    D|---------------8----------------------------------------------------|
    A|--------------------------------------------------------------------|
    E|--------------------------------------------------------------------|…
  • I was surprised to find that no one had already figured this 
    song out yet.  This is from the Best of Santana and I don't know 
    if there is another version of this song. I say this because
    I saw a Chord file that said the…
  • Symbols:
    
    h=hammer-on
    p=pull-off
    /=slide-up
    ~=left hand vibrato
    b=bend
    r=release bend
    
    LIFE IS A LADY:
    e|-------------------12b13r12--------|
    B|-10~~~--11-10---10----------10~~~--|
    G|-----------------------------------|
    D|-----------------------------------|
    A|-----------------------------------|
    E|-----------------------------------|…
  • Symbols used:
    
    h= Hammer on
    p= Pull-off
    /= Slide-on
    ////= Tremolo picking
    ~~~= Left hand vibrato
    
    
    
    E----------------------------------------------------------------------
    B----------------------------------------------------------------------
    G----------------------------------------------------------------------
    D-0////----------------------------------------------------------------
    A-5////----------------------------------------------------------------
    E----------------------------------------------------------------------…
  • Tablature explanation:
    h=hammer on
    p=pull-off
    /=slide up(or indicates tremolo picking)
    =slide down
    ^=bend full
    b=bend half
    br=bend 3 semitones 
    ^r or br=bend and release  
    key=G minor
    
    Solo 1:
    ...broken through
    |--------------------------------------------6--8--^--10p8---6--10--6h8---|
    |----------------------------------------/8-------------------------------|
    |-5^-------3--3--5--------------------------------------------------------|
    |------------------/5---3p0-----------------------------------------------|
    |-------------------------------------------------------------------------|
    |-1:39--------------------------------------------------------------------|…
  • Symbols:
    
    h=hammer-on
    p=pull-off
    /=slide-up
    =slide-down
    b=bend
    r=release bend
    ()=Let ring
    ~=left hand vibrato
    Tr~~~~~=Trill
    
    INTRO:
    e|------------|
    B|------------|
    G|------------|
    D|------------|
    A|------------|
    E|-3-3--1--3--|(x11)
    
    e|--------------------------------|-------------------------------|
    B|--------------------------------|-------------------------------|
    G|---------------------------5--3-|-------------------------------|
    D|-3h5-5---3h5-5---3h5-5-----5--3-|-3h5-5---3h5-5---3h5p3---------|
    A|-------5-------5-------5---3--1-|-------5-------5-------5-3-1---|
    E|--------------------------------|-----------------------------3-|
    
    e|--------------------------------|-------------------------------|
    B|--------------------------------|-------------------------------|
    G|---------------------------3--5-|-------------------------------|
    D|-3h5-5---3h5-5---3h5-5-----3--5-|-3h5-5---3h5-5---3h5p3---------|
    A|-------5-------5-------5---1--3-|-------5-------5-------5-3-1---|
    E|--------------------------------|-----------------------------3-|
    
    Repeat…
  • KEY: Cm
    
    Drum roll.
    
    
    Intro lead:	Cm / Cm
    
           Cm
    Well Hello, What's your name?
    
    Can I take you by the hand?
               Cm
    Won't you please come with me
    
    To a place of ecstacy
    
    
          Fm
    Paradise, By the sun
    
    Girl I'm…
  • Intro - 2x:
    e|--------------------------------------------------------| 
    B|--------------------------------------------------------| 
    G|-17-----------17-16--------14-----------------13-12-10-9| 
    D|----14-15--15-------12-14-----10-12--10-12-13-----------|…
  • Symbols:
    
    h=hammer-on
    p=pull-off
    /=slide-up
    b=bend
    r=release bend
    
    CHORDS:
    
    For Intro:                    For Verses:         For Chorus:
      DMaj  Bm  Am    Em         GMaj  Bm  Am          GMaj Bm  Am
    e|-10---7---5-----0--|…
  • Tablature Explanation:
    h=hammer-on
    p=pull-off
    /=slide up
    =slide down
    ^=bend
    br, ^r=bend &release
    14r12 = pre bend from twelve to 14 then pick and release
    
    You will have to tune your guitar up a bit for this song, but not…
  • intro (x4)         verse (x3)           verse outro         and chorus
    G|-----------------|---9----9----9-------|---9----9----9------------------------------------
    D|---5--7---5-55---|------------------57-|------------------557--5---------7--5---------7--5
    A|5-7--7--57-7--7--|7-7--7-7--7-7--7-7---|7-7--7-7--7-7--7-7-------77777777-----77777777----
    E|-----------------|---------------------|--------------------------------------------------…
  • Intro: Cm  
     
     Cm           D#  
    She said I feel stranded 
              Fm      
    and I can't tell anymore 
        G#                    Cm      
    If I'm comin' or I'm goin' 
              D#  
    it's not how I planned it…
Наверх