Аккорды «Satyricon»

Satyricon
Satyricon — норвежская блэк-металлическая группа из Осло. В Satyricon два постоянных участника: Сатир (вокал, гитара, бас, клавишные) и Фрост (ударные), к которым время от времени присоединяются сессионные и концертные музыканты. Satyricon возникли в начале 90-х и с первыми альбомами вошли в когорту групп, которые создали норвежскую блэк-металлическую сцену и которые часто характеризуют как "вторую волну блэк-метала". Начиная с четвёртого альбома "Rebel Extravaganza", музыка группы стала более ориентированной… Читать полностью... Satyricon — норвежская блэк-металлическая группа из Осло. В Satyricon два постоянных участника: Сатир (вокал, гитара, бас, клавишные) и Фрост (ударные), к которым время от времени присоединяются сессионные и концертные музыканты. Satyricon возникли в начале 90-х и с первыми альбомами вошли в когорту групп, которые создали норвежскую блэк-металлическую сцену и которые часто характеризуют как "вторую волну блэк-метала". Начиная с четвёртого альбома "Rebel Extravaganza", музыка группы стала более ориентированной на массовую аудиторию, последующие релизы стабильно попадали в мейнстримовые музыкальные чарты. Сейчас Satyricon вместе с соотечественниками Dimmu Borgir являются одной из наиболее коммерчески успешных групп в своём жанре. В 1990 году бас-гитарист Wargod (Вегард Бломберг) и ударник Exhurtum (Карл Михаэль Эйде) создали дэт-металлическую группу Eczema, вскоре к ним примкнул гитарист Lemachand (Халвард Йоргенсен). В следующем году они поменяли название на Satyricon, тогда же в группу пришёл пятнадцатилетний вокалист Сатир (Сигурд Вонгравен). В этом составе было записано первое демо "All Evil", изданное тиражом около 1000 копий. В 1992 году Эйде и Вегард были отчислены из группы, и ударником стал Фрост. В следующем году было записано демо "The Forest is My Throne", которое было распродано тиражом около 1500 копий. После записи ушёл Йоргенсен, и в группе остались Сатир и Фрост. В 1995 году Satyricon переиздали "The Forest Is My Throne" на сплите с Enslaved. Эйде и Йоргенсен впоследствии играли важную роль в других известных норвежских группах: Йоргенсен многие годы являлся постоянным участником Ulver, а Эйде основал Ved Buens Ende и Aura Noir. Работа в студии над дебютным альбомом началась в августе 1993 года, но до конца сессии из-за финансовых проблем шведского лейбла No Fashion Records музыкантам пришлось самим искать деньги и оборудование. Выходом стало создание собственного лейбла Moonfog Productions под патронажем более известной компании Tatra Productions. На альбоме, получившем название "Dark Medieval Times", группа стремилась передать мрачный дух средневековья. "Сырой" блэк-метал эффектно сочетается с пассажами, исполненными на акустической гитаре, и флейтой. Альбом по праву считается классикой жанра. Второй альбом, "The Shadowthrone" (1994), стоит немного ближе к викинг-металу: на треке "Vikingland" доминирует чистый вокал, в нескольких других треках важную роль играют клавишные партии. На бас-гитаре играл Самот из Emperor, на клавишных — Сверд Стейнар Йонсен из Arcturus. В следующем году Сатир вместе с Исаном из Emperor записал фолк-эмбиентный альбом "Fjelltronen", который был издан под именем Wongraven (проект был назван по фамилии Сатира). Третий альбом, "Nemesis Divina", вышел в 1996 году и также считается классическим. Он был записан с участием Nocturno Culto (гитарист Darkthrone). В Европе альбом распространялся влиятельным лейблом Century Media, а на песню "Mother North", которая до сих пор является одной из самых известных песен группы, был снят видеоклип. В том же году Satyricon с сессионным гитаристом Даниэлем Олайсеном отправились в европейское турне с Dissection и Gorgoroth. Начиная с этого момента Satyricon постепенно стали отходить от традиционного блэк-метала. В 1997 году был издан EP Megiddo, в который вошли четыре ранее не издававшихся трека: ремикс Apoptygma Berzerk на песню «The Dawn Of A New Age», концертная версия «Forhekset», перезаписанная и изданная под новым названием «The Dark Castle In The Deep Forest», и кавер-версия песни Motörhead «Orgasmatron». На последовавшем альбоме "Rebel Extravaganza" (1999) группа продолжила эксперименты: в музыке появились черты индастриала, а структура песен стала напоминать структуру традиционного рока с чередованием куплетов и припевов. Музыка Satyricon начиная с этого альбома часто характеризуется как пост-блэк-метал. После этого Satyricon провели турне в статусе хедлайнеров при участии Hecate Enthroned и Behemoth, а затем сопровождали американских трэш-металлистов Pantera в их европейском туре. Satyricon стали одной из первых блэк-металлических групп, получивших контракт с крупным лейблом, издающим популярную музыку. В 2002 году группа подписала контракт с Capitol Records на издание своего нового альбома "Volcano" в Скандинавии (основным дистрибьютором был Nuclear Blast). На главный хит "Fuel for Hatred" известный шведский клипмейкер Йонас Окерлунд снял видеоклип для ротации на телевидении. "Volcano" дебютировал на четвёртом месте в норвежском чарте и разошёлся только в Норвегии тиражом в 20 000 копий. Позже альбом получил главную национальную музыкальную премию Spellemannsprisen в номинации "Лучший металлический альбом года", немецкую премию Alarm Award в той же номинации и премию The Oslo Award как лучший альбом года. "Fuel for Hatred" на Alarm Award была признана песней года. Два года спустя Volcano был официально издан в США дочерним лейблом Sony Music под названием EatUrMusic. В 2004 году был запланирован совместный американский тур с Morbid Angel и Suffocation. Перед туром на группу обрушились трудности: Фрост не получил въездную визу, а концертный гитарист Арнт Гронбех в драке порезал лицо накануне отъезда. В итоге Гронбех отыграл тур со швами, а Фроста заменил Трюм Торсон из Emperor. Летом музыканты отыграли на крупнейшем фестивале Wacken Open Air. Это событие стало знаковым, так как вместе с Satyricon на сцену вышел Nocturno Culto и исполнил четыре песни из репертуара Darkthrone. В конце года состоялся ещё один тур по Штатам и Канаде. На этот раз Фроста подменял Джои Джордисон из Slipknot. Однако из-за того, что два гитариста были арестованы по обвинению в изнасиловании, последние концерты были отменены. Осенью следующего года началась работа над альбомом "Now, Diabolical", релиз которого состоялся в апреле 2006 года. Он стартовал на второй строчке в национальном чарте, хорошо продавался и во многих странах пользовался популярностью не только среди поклонников блэк-метала. Он стал первым блэк-металлическим альбомом, который получил золотой статус в Норвегии (в 2007 году это достижение повторил "In Sorte Diaboli" Dimmu Borgir). Изданием альбома за пределами Норвегии занимался американский лейбл Roadrunner Records. В марте 2008 года Satyricon стали одними из хедлайнеров Inferno Metal Festival в Осло. Очередной альбом, "The Age Of Nero", вышел 3 ноября 2008 года. В январе прошёл североамериканский тур с Cradle of Filth, на март намечены выступления в Австралии и Новой Зеландии. В 2010 году группа даёт два концерта в России в поддержку последнего альбома, а в 2011 музыканты отправились к берегам Южной Америки для проведения тура "Latin American Invasion". Скрыть...
Популярные аккорды Satyricon:
алфавиту | просмотрам | случайно
  • Tuning: Standard Tuning (EADGBE
    
    Intro
    e|---------------------------------------------------------------------------|
    B|---------------------------------------------------------------------------|
    G|---------------------------------------------------------------------------|
    D|---------8-8-8-8---------8-9------------8-8-8-8----------------------------|x4
    A|-2-2-2-2-6-6-6-6-2-2-2-2-6-7----2-2-2-2-6-6-6-6-2-2-2-2--------------------|
    E|-0-0-0-0---------0-0-0-0--------0-0-0-0---------0-0-0-0--9-10-9-10---------|
    
    Intro…
  • Key:
    v=vibrato
    /=slide
    pm=palm mute
    h=hammer-on
    p=pull-off
    ()=artificial harmonic
    
    
    Riff 1x6
    --------------------------------------------------------
    --------------------------------------------------------
    --------------------------------------------------------
    ---7-7--7/5-7/8--7-7--7/5-7/8--7-7--7/5-7/8--7-7-7/8-8--
    ---7-7--7/5-7/8--7-7--7/5-7/8--7-7--7/5-7/8--7-7-7/8-8--
    ---5-5--5/3-5/6--5-5--5/3-5/6--5-5--5/3-5/6--5-5-5/6-6--
    
    Riff…
  • Tab Notation:
    .  - palm mute                          ph    - pinched harmonic
    /  - slide up to                        ah    - artificial harmonic
      - slide down to                      hr    - natural harmonic
    ~  - vibrato…
  • (Clean)
    |-----------------------------------|
    |-----------------------------------|
    |-----------------------------------|
    |------2--------2--------0----------|
    |---2--------3--------0--------0--1-|
    |0--------0--------1--------3-------|
    
    |-----------------------------------|
    |-----------------------------------|
    |-----------------------------------|
    |----5555----5555----5555-----------|
    |----3333----6666----3333-----------|
    |0000----0000----0000----0000443311-|
    
    |-----0------------0-----------0---------------------|
    |-----0------------0-----------0---------------------|
    |-----0------------0-----------0---------------------|
    |-2-------3-2-3-2-----3-2-3-2-----3-2--6-6/5-5-5/3-3-|
    |-2-------3-2-3-2-----3-2-3-2-----3-2--6-6/5-5-5/3-3-|
    |-0-------1-0-1-0-----1-0-1-0-----1-0--4-4/3-3-3/1-1-|
    
    |-------------------------------------------------------|
    |-------------------------------------------------------|
    |-------------------------------------------------------|
    |-9--9/8--8--8/5--5--5/4--4-9--9/8--8--8/5--5--5/4--4-|
    |-7--7/6--6--6/3--3--3/2--2-7--7/6--6--6/3--3--3/2--2-|
    |-------------------------------------------------------|
    
    |---------------------------------------------------|
    |---------------------------------------------------|
    |---------------------------------------------------|
    |-9--9/8--8--8/5--5--5/4--4-9--9/8--8--8/5--5--7-|
    |-7--7/6--6--6/3--3--3/2--2-7--7/6--6--6/3--3--5-|
    |-7--7/6--6--6/3--3--3/2--2-7--7/6--6--6/3--3--5-|
    
    |-----------------------------------|
    |-----------------------------------|
    |-----------------------------------|
    |-----------------------------------|
    |-7---7h8-5h8-7----------7--------6-|
    |----------------00000000-00000000--|
    
    |------------------------------------------------|
    |------------------------------------------------|
    |------------------------------------------------|
    |----9----10-9-7-10-9------9999----10-9-7-10-----|
    |----7-----8-7-5--8-7-10-9-7777-----8-7-5--8-7-6-|
    |0000-0000-------------8-7-----0000----------5-4-|
    
    |----------------------------------------------------
    |----------------------------------------------------
    |----------------------------------------------------
    |----------------------------------------------------
    |-2-2-3----------2-2--2---4-5-4--2-2-3---------4--4-4
    |-0-0---0-3-5-3--0-0--0-0-2-2-2--0-0---0-3-5-3-2--2-2
    
    |-----------------|
    |-----------------|
    |-----------------|
    |-----------------|
    |---------2-------|
    |-5-2-4-5---4-5-1-|
    
    |---------------------------------|
    |---------------------------------|
    |---------------10--6-------------|
    |------10--------8---7---8--8--8/-|
    |-2--2--8--2--2-------8--8--8--8/-|
    |-0--0-----0--0----------7--7--6/-|
    
    |------------------------------------------------------------|
    |------------------------------------------------------------|
    |------------------------------------------------------------|
    |-------------------------------------------------7--711--9-|
    |-2-2--3-3--------2-2--3-3--------2-2--3-3--------5--59---7-|
    |-0-0------3-0--3-0-0------3-0--3-0-0------3-0--3------------|
    
    (Clean)
    |------------------------------------------------------------
    |------------------------------------------------------------
    |-------4-4-2---------------4-4-2---------------4-4-2--------
    |-2--2--------5-4--5--2--2--------5-4--5--2--2--------5-4--5-
    |------------------------------------------------------------
    |------------------------------------------------------------
    
    |-------------|
    |-------------|
    |-------------|
    |-0--0-2-4--2-|
    |-------------|
    |-------------|…
  • Palm Mute = m
    Trill     = ~
    
    Opening Riff:  (x4)
    e|-0----------0-------------------------------------------------
    B|-----2/13-------2--2-------1----------------------------------
    G|--------------------------------------------------------------
    D|--------------------------------------------------------------
    A|--------------------------------------------------------------
    E|-----------------------7--------------------------------------
    
    Riff…
  • Key:
    p=pull-off
    /=slide
    ....=tremelo
    h=hammer-on
    pm=palm mute
    
    Riff 1 (this is played fast up and down put I think It sounds better with 
    just downstrokes , keeping in time with the snare)
    ----------------------------------------------------------------------------
    ----------------------------------------------------------------------------
    ----------------------------------------------------------------------------
    ----7-7-7-7-7-7-7-7-7-7-7-7-7--5-5-5--8-8-8-8-8-8-8-8-8-8-8-8-10-10-10-10---
    ----7-7-7-7-7-7-7-7-7-7-7-7-7--5-5-5--8-8-8-8-8-8-8-8-8-8-8-8-10-10-10-10---
    ----5-5-5-5-5-5-5-5-5-5-5-5-5--3-3-3--6-6-6-6-6-6-6-6-6-6-6-6--8--8--8--8---
    
    Classical…
  • Key:
    v=vibrato
    pm=palm mute
    h=hammer-on
    p=pull-off
    /=slide
    ()=artificial harmonic
    
    Riff 1 x 4 very fast
    ------------------------------------------
    ------------------------------------------
    ------------------------------------------
    ------------------------------------------
    ----7--0-5-0-5----------7--0-5-0-5--------
    --5------------8-7-8--5------------8-7-0--
    
    Riff…
  • /     slide up
         slide down
    p     pull on
    h     hammer on
    ~     vibrato
    pm    .
    
    
    
    Tuning: Standard
    
    |---------------|
    |---------------|
    |---------------|
    |---------------|
    |-22222-333-444-|
    |-00000-111-222-|
    
    
    |--------------------------------------|
    |--------------------------------------|
    |--------------------------------------|
    |-------00000000000-------000000000000-|
    |-------44455544444-------444555666888-|
    |-000000------------000000-------------|
    
    |--------------|
    |--------------|
    |--------------|
    |------6/8-7-7-|
    |-2-3--4/6-5-5-|
    |-0-1----------|
    
    |------------|
    |------------|
    |------------|
    |-8-9--6/7-7-|
    |-6-7--4/5-5-|
    |------------|
    
    |--------------------------------------------------------------------|
    |--------------------------------------------------------------------|
    |----------------------------------------------------9-----9-----9---|
    |-7-6------------------7-6------------------7-6-7------9-----9-----9-|
    |-5-4-6-5----5----5----5-4-6-5----5----5----5-4-5--7-----7-----7-----|
    |-----4-3-33-3-33-3-33-----4-3-33-3-33-3-33--------------------------|
    
    |-----------------------------------------------------------------------|
    |-----------------------------------------------------------------------|
    |-----------------------------------------------------10---10---10---10-|
    |-7-6------------------7-6------------------7-6-7---10---10---10---10---|
    |-5-4-6-5----5----5----5-4-6-5----5----5----5-4-5--8----8----8----8-----|
    |-----4-3-33-3-33-3-33-----4-3-33-3-33-3-33-----------------------------|
    
    |---------------------------|
    |---------------------------|
    |---9--9--9------9--9--9----|
    |--9--9--9--8---9--9--9--10-|
    |-7--7--7---6--7--7--7----8-|
    |---------------------------|
    
    |---------------------------------------|
    |---------------------------------------|
    |---------------------------------------|
    |-9-----11--9------11--9-11-12-11-9-8-9-|
    |-7------9--7-------9--7--9-10--9-7-6-7-|
    |-0-------------------------------------|
    
    |-----------------------------------------------|
    |-----------------------------------------------|
    |-----------------------------------------------|
    |--------9------------------9-------------------|
    |-10-9---7-10-9--10-9-7-9---7-10-9-7---4-5-4--2-|
    |--8-7------8-7---8-7-5-7------8-7-5---2-3-2--0-|
    
    |---|
    |---|
    |-9-|
    |-9-|
    |-7-|
    |---|
    (note:…
  • Key:
    v=vibrato
    p=pull-off
    h=hammer-on
    /=slide
    pm=palm mute
    B=bend
    tr=trill
    
    Riff 1x4
    --------------------------
    --------------------------
    --------------------9-10--
    -----------------2--9-10--
    -----------------2--7--8--
    --0000-11-0--B2--0--------
    pm....…
  • Key:
    AFAP=AS FAST AS POSSIBLE
    p=pull-off
    /=slide
    h-hammer-on
    pm=palm mute
    ...=tremelo
    tr=trill
    v=vibrato
    b=bend
    ah=artificial harmonic
    ()=ring out
    
    Intro Rhythm:
    ---------------------------
    ---------------------------
    ---------------------------
    ---------------------------
    --1-000-1-000-1-000-1-000--
    ---------------------------
    PM.…
  • Tune all guitars 1/2 step 
    
    
    riff 1
    
    I----------------------------------------------------------------------------------I
    I----------------------------------------------------------------------------------I
    I----------------------------------------------------------------------------------I
    I---------------------6---------------6--------------------------------------------I
    I--7---7-5-7-5-7-5--7-------7---7-5-7-------7---7-5-7-5-7-5-7-8~----7---7-5-7------I
    I--0------------------------0---------------0----------------------0---------5-7-8-I…
  • Intro 1 (2 times)
    
    ---------------------------------|---------------------------------|
    ---------------------------------|---------------------------------|
    ---------------------------------|---------10--9-------------------|
    -----9---------------9-8-9---10--|-10--9---------------9-----------|
    -----7---------------7-6-7---8---|---------------------7-----------|
    -0---------------0---------------|-----------------0---------------|
    
    
    ---------------------------------|---------------------------------|
    ---------------------------------|---------------------------------|
    ---------------------------------|---------------------5---4-------|
    -----9-8-9---4---5-8-----9-------|---------9-8-9---5-----------5---|
    -----7-6-7---2---3-6-----7-------|---------7-6-7---3---------------|
    -0-------------------0-----------|-----0---------------------------|
    
    
    ---------------------------------|---------------------|
    ---------------------------------|---------------------|
    ---------------------------------|-5---4---------------|
    -----9---------------9-8-9---5---|---------5---4-------|
    -----7---------------7-6-7---3---|---------3---2---3---|
    -0---------------0---------------|-----------------1---|
    
    
    Intro…
  • Opener B:  (x4)
    e|--------------------------------------------------------------
    B|-999----------------------------------------------------------
    G|-----9-8-9-4-5-7----------------------------------------------
    D|--------------------------------------------------------------
    A|--------------------------------------------------------------
    E|--------------------------------------------------------------
    
    Opener…
  • Riff 1
    
    -------------------------
    -------------------------
    -------4--------0-----0--
    ----4-----4--2-----4---4-
    -2-----------------------
    -------------------------
    
    Riff 2
    
    --------------------------------------
    --------------------------------------
    ------6-66-7-4/7-6-------6-66-7-4/7---
    -4-44-4-44-5-2/5-4--4-44-4-44-5-2/5-3-
    -2-22---------------2-22------------1-
    --------------------------------------
    
    Riff…
Наверх