Аккорды «Save Ferris»

Популярные аккорды Save Ferris:
алфавиту | просмотрам | случайно
  • Opening Bagpipe Solo:
    
    |------------------------------------------13--13--12-----------------------------------|
    |------------------------------13------15--------------15--13---------------------------|
    |--14--12------12----------14------15--------------------------15--14--12h14p12-----12--|
    |----------15------15--15--------------------------------------------------------15-----|
    |---------------------------------------------------------------------------------------|
    |---------------------------------------------------------------------------------------|
    
    
    Opening…
  • > means strum
    
    Intro:
    G------------------------------------------|
    D------------------------------------------|
    A--3----------3-------------0-2------------|
    E----3--1--------3---1----3----------------|
    
    Verse:
    G------------------------------------------|
    D----2-5-----------------0-----------------|
    A--3--------2-5-----0-3----4---------------|
    E---------3-------1------------------------|
    
    Other…
  • Intro Riff:
    G---------------
    D---------------
    A-6-5-3-1-0-0-
    E---------------
    
    Main Riff (slow):
    G-----------
    D-----------
    A-5-3-1-0-0-
    E-----------
    
    Hits:
    G---------
    D---------
    A-1-3-4-0-
    E---------
    
    Fill #1:
    G--------------
    D--------------
    A-1-1-3-3-5-0~-
    E--------------
    
    Main…
  • Chords:
    D - xx0212 or 557775
    Bm  xx4432 or 224432
    G   xx5433 or 355433
    A   x03211 or 577655
    Em  x22100
    
    
    Vs1:
    D           Bm
    Baby listen to me
         G                A
    I've got something to say
    D            Bm
    I have finally…
  • Tuning: 1/2 step down (Eb)
    
    Chords
           E        Eadd9      Esus4addC#   Esus4
    e-|-0-----0----0-----0------0------0---0-----0
    b-|-0-----0----0-----0------5-----17---5----17
    g-|-1-or-13----1-or-13------4--or-16---4-or-16
    d-|-2----14----4----16------2-----14---2----14
    a-|-2----14----2----14------4-----16---0-----0
    e-|-0-----0----0-----0------0------0---0-----0…
  • E----5----4---3---4--------------------------------
    B----5----5---2---5--------------------------------
    G----6----4---3---4--------------------------------
    D----------------------------------------------
    A----------------------------------------------
    E----------------------------------------------…
  • Play the song tuned down 1 fret 
    This isn’t the rhythm but its easy to figure out 
    Play 2x
    
    Gtr 1
               Db                          Gb
    eb--------------------------------------------------------------
    Bb-------------------------------------------------------------
    Gb----7---7--7--7--7---------12--12--12--12-12---------
    Db----7---7--7--7--7---------12--12--12--12-12---------
    Ab----5---5--5--5--5---------10--10--10--10-10---------
    Eb-------------------------------------------------------------…
  • -----------------------------------------------------------------
    -----------------------------------------------------------------
    1-------1-------1-1----------------------------------------------
    -------------------------333333---444444-------------------------
    
    
    
    -----------------------------------------------------------------
    ----------1-----------1-----------1----3---------------------1---
    1-2-3------1-2-3------1-2-3-----------3---0----1-2-3-----333333---444444------
    -----------------------------------------------------------------
    
    
    -----------------------------------------------------------------
    1-1-1-1---3-3-3-3--3-1-------------------------------------------
    -------------------------------3-2-0-----------------------------
    ----------------------------------------------------------------
    
    
    SOLO!
    
    -----------------------------------------------------------------
    3--1-----------------------1--3----------------------------------
    -------3--2--1--0--2--3------------------------------------------
    -----------------------------------------------------------------…
Наверх