Аккорды «School Of Rock»

School Of Rock
Вымышленная рок-группа из кинофильма Школа рока ( School of Rock, The, 2003), основной состав которой составили десятилетние школьники. Состав: Dewey "Mr. S" Finn - вокал, гитара Zack "Zack Attack" Mooneyham - гитара Lawrence "Mr. Cool" - клавиши Katie "Posh Spice" - бас-гитара Freddy "Spazzy Mcgee" Jones - ударные Tomika "Turkey Sub", Alicia "Brace Face", Marta "Blondie" - бэк-вокал Две песни из фильма It's a Long Way to the Top и School of Rock попали в официальный саундтрек School of Rock Вымышленная рок-группа из кинофильма Школа рока ( School of Rock, The, 2003), основной состав которой составили десятилетние школьники. Состав: Dewey "Mr. S" Finn - вокал, гитара Zack "Zack Attack" Mooneyham - гитара Lawrence "Mr. Cool" - клавиши Katie "Posh Spice" - бас-гитара Freddy "Spazzy Mcgee" Jones - ударные Tomika "Turkey Sub", Alicia "Brace Face", Marta "Blondie" - бэк-вокал Две песни из фильма It's a Long Way to the Top и School of Rock попали в официальный саундтрек School of Rock Скрыть...
Популярные аккорды School Of Rock:
алфавиту | просмотрам | случайно
  • ~ Ring out
    
    G|--------------------------
    D|--------------------------
    A|--------------------------
    D|-0~-0~-0-0-0-0----0-0-0---
    
    G|-------------
    D|-------------
    A|----3--2--3-- X5
    D|-0-----------
    
    G|-----------
    D|-----------
    A|----3------
    D|-0-----5---
    
    If…
  • e|---------------------------------------------------------|
    B|---------------------------------------------------------|
    G|-7b-7b-6b-5b-5b--7b-7b-6b-5b-6b--6h56h56h56h5--8b8b8-5b~-|
    D|---------------------------------------------------------|
    A|---------------------------------------------------------|
    E|---------------------------------------------------------|
    
    e|--------------------------------------------------------|
    B|--------------------------------------------------------|
    G|-10-10-10--11b~-11b-11b-11b-10-9-10--9-9-8-9-8-7-8/5~---|
    D|--------------------------------------------------------|
    A|--------------------------------------------------------|
    E|--------------------------------------------------------|…
  • Tuning: Standard (E A D G B E)
       C    D     G G G G G G   C C  D D   G G G G G G  C C C C C  C  C
    E|------2-----3-3-3-3-3-3-|------2-2---3-3-3-3-3-3|------------------||
    B|-1----3-----3-3-3-3-3-3-|-1-1--3-3---3-3-3-3-3-3|-1-1-1-1-1--1--1--||
    G|-0----2-----0-0-0-0-0-0-|-0-0--2-2---0-0-0-0-0-0|-0-0-0-0-0--0--0--||
    D|-2----------0-0-0-0-0-0-|-2-2--------0-0-0-0-0-0|-2-2-2-2-2--2--2--||
    A|-3----------2-2-2-2-2-2-|-3-3--------2-2-2-2-2-2|-3-3-3-3-3--3--3--||
    E|------------3-3-3-3-3-3-|------------3-3-3-3-3-3|------------------||
    Math…
  • Standard Tuning
    EADGBe
    
    |---------------------------------------------|
    |--7-7-7-8-7-10-8-7-8-8-8-8-7-7-8-8-----------|
    |--7-7-7-7-7-7--7-7-7-7-7-7-7-7-7-7-----------|
    |---------------------------------------------|
    |---------------------------------------------|
    |---------------------------------------------|…
  • B   A   or   B  A
    e|--2---0-      -7--5-
    B|--4---2-      -7--5-
    G|--4---2-      -8--6-
    D|--4---2-      -9--7-
    A|--2---0-      -9--7-
    E|--2---0-      -7--5-
    
    B                                A
    I didn't get my allowance today,…
Наверх