Аккорды «Senses Fail»

Senses Fail
Американская рок-группа из города Риджвуд, штат Нью-Джерси, образованная в 2002 году после того, как вокалист James "Buddy" Nielsen разместил на одном из сайтов сообщение о поиске музыкантов для совместных репитиций. Состав команды представили: James Nielsen (вокал), Dave Miller (гитара), Garrett Zablocki (гитара), Mike Glita (бас) и Dan Trapp (ударные). Парни сформировали свой стиль из панка и хардкора с влиянием поэзии, эмоций, литературы, религии, восточной философии и духовности, чтобы создавать… Читать полностью... Американская рок-группа из города Риджвуд, штат Нью-Джерси, образованная в 2002 году после того, как вокалист James "Buddy" Nielsen разместил на одном из сайтов сообщение о поиске музыкантов для совместных репитиций. Состав команды представили: James Nielsen (вокал), Dave Miller (гитара), Garrett Zablocki (гитара), Mike Glita (бас) и Dan Trapp (ударные). Парни сформировали свой стиль из панка и хардкора с влиянием поэзии, эмоций, литературы, религии, восточной философии и духовности, чтобы создавать свой собственный звук и впечатление. На название повлияла буддистская философия: "If you want to reach the highest level of being and see God, you have to have all your senses fail", говорит Бадди ("Если вы хотите достичь наивысшего уровня существования и увидеть Бога, ваши чувства должны провалиться"). Для создания фанатской базы они играли везде, где только можно в окрестностях Нью-Джерси - от скейт-парков и клубов до церквей, - и вскоре приступили к первым записям в студии. Выпустив дебютный мини-альбом "From The Depths Of Dreams" через независимый лэйбл ЕСА Records, команда приступила к продвижению своей музыки в массы посредством бурной концертной деятельности и интернета. Drive-Thru Records заметил их и прописал у себя в конце 2002 года. Переработанная версия дебютного мини-альбома была выпущена в апреле 2003 года. Новая версия релиза была подвержена качественному сведению и ремастерингу, а так же включала в себя новую песню и акустическую версию "Ground Folds". Вслед за этим, Senses Fail отправились в тур с The Used. Работа над дебютной полноценной пластинкой группы стартовала в начале 2004 года. Тогда вокалисту Бадди было 20 лет. Группа работала с продюсером Стивом Эветтсом (Saves the Day, A Static Lullaby, Every Time I Die) на новом лейбле Vagrant Records. Тексты песен были взяты из различных источников. Название альбома было взято из поэмы, написанной Чарльзом Буковски, песня "Irony of Dying on Your Birthday" - о работе мифолога Джозефа Кэмпбелла, песня "Slow Dance" включает в себя строки Дао Дэ Цзин. "Let It Enfold You" был издан седьмого сентября 2004 года и продался числом копий более чем 300 000. Синглами стали "Rum Is for Drinking, Not for Burning", "Buried a Lie". Кроме того, на последний было сделано видео с участием мамы Бадди на съемках какой-то мыльной оперы, благодаря которому группа получила коммерческий успех и известность, публикуясь в Kerrang!, Rolling Stone, Spin и на обложке Alternative Press, и выступая на Warped Tour и Taste of Chaos вместе с The Used, My Chemical Romance и Killswitch Engage. Альбом так же был переиздан в ноябре 2005 с включением бонус-треков и новой обложкой. Кроме основного треклиста альбом включил три акустические версии старых треков, кавер на песню Siucidal Tendencies "Institutionalized" и трек "American Death". В 2005 году по взаимному согласию состав группы покинул Дэйв Миллер, на смену которому пришел гитарист Heath Saraceno, ранее трудившийся в рядах группы Midtown. Миллер же открыл свой лейбл DMI в 2006 году. После гастрольного перерыва группа начала работу над новой пластинкой. Названный "Still Searching", альбом получил в продюсеры Брайана МакТернана (Thrice, Cave In). Новая работа вышла менее агрессивная, чем предыдущая, и более эмоциональная. В поддержку нового альбома группа вместе с Saosin, From Autumn to Ashes, Bleeding Through снова отправилась в многочисленные туры, среди которых Taste of Chaos, Zumiez Couch Tour, а также годовой тур по 33 городам Америки. 13 ноября 2007 года вышла deluxe-версия альбома с новой обложкой, закулисной DVD-видеозаписью из концертного тура группы осенью прошлого года, двумя ранее вышедшими в интернете песнями, тремя новыми песнями и кавером на песню The Cranberries "Salvation". Песня "Can't Be Saved" отметилась в игре Guitar Hero III: Legends of Rock, а "Calling All Cars" - в игре Burnout Paradise. Восьмого декабря 2007 Senses Fail покинул Майк Глита, чтобы заняться своим сайд-проектом. Позже он объявил на Myspace, что он создал группу под названием Love Automatic и будет продолжать заниматься этим проектом. Их следующий альбом "Live Is Not a Waiting Room" вышел на Vagrant Records седьмого октября 2008 года, а на следующий день группа отправилась в тур по штатам. 21 ноября Senses Fail дали онлайн-интервью Ultimate Guitar, говоря об эволюции группы, их новом басисте и новом альбоме. 30 июня 2009 года было объявлено, что гитарист Хит Сарацено покинет группу после завершения Warped Tour 2009 года. Заменил его Зак Роач. Группа начала запись нового альбома, названного The Fire, на Salad Days Studio со своим старым продюсером, надеясь выпустить работу до конца 2010 года. Действительно, релиз произошел 25 октября на Hassle Records в Англии и 26 октября на Vagrant Records в остальном мире, получив положительные отзывы. Вместо Зака на альбоме на обеих гитарах играет Гарретт Заблоцки, как написано на буклете альбома. Позже альбом вышел на виниле при поддержке Mightier Than Sword Records. В феврале 2011 Гарретт покинул группу, чтобы поступить в колледж. Однако он продолжает сочинять музыку для различных фильмов и видео. В ноябре группа находится в гастролях с Stick To Your Guns, Make Do and Mend, и The Story So Far. 13 июля 2011 года на странице Facebook группа сообщила, что занимается записью песен для нового альбома. Также в Instagram и Twitter было выложено много фото из студии. Группа выступает на Warped Tour 2012. Наконец, 19 июня тиражом в 10 000 копий выходит "Follow Your Bliss: The Best Of Senses Fail" на двух CD, содержащий лучшие треки предыдущих релизов и четыре новых песни. В интервью на Warped Tour Бадди рассказал, что группа собирается записывать новый альбом в ноябре. Дискография: Студийные альбомы: 2002 - From the Depths of Dreams (EP) 2004 - Let It Enfold You 2006 - Still Searching 2008 - Family Tradition (EP) 2008 - Life Is Not A Waiting Room 2010 - The Fire 2012 - Follow Your Bliss: The Best Of Senses Fail 2013 - Renacer 2015 - Senses Fail / Man Overboard (Split) 2015 - Pull The Thorns From Your Heart Синглы: 2005 - "Rum Is for Drinking, Not for Burning", "Buried a Lie" 2006 - "Calling All Cars" 2007 - "Can't Be Saved" 2008 - "Life Is Not a Waiting Room" 2010 - "Saint Anthony" 2013 - "Mi Amor" Текущий состав: James "Buddy" Nielsen - вокал (2002 - по сей день) Zack Roach - гитары, бэк-вокал (2010 - по сей день) Matt Smith - гитары, бэк-вокал (2011 - по сей день) Gavin Caswell - бас-гитара (2013 - по сей день) Chris Hornbrook - ударные (2014 - по сей день) Бывшие участники: Garrett Zablocki - гитары, бэк-вокал (2002–2011) Heath Saraceno - гитары, бэк-вокал (2005–2009) Dave Miller – гитары (2002–2005) Mike Glita - бас-гитара, бэк-вокал (2002–2008) Jason Black - бас-гитара (2008 - 2012) Dan Trapp - ударные, перкуссия (2002 - 2014) Скрыть...
Популярные аккорды Senses Fail:
алфавиту | просмотрам | случайно
  • / or = slide
    PM = ............
    Ring Out = ~  
    Drop D Tuning
    
    Intro:
    Guitar 1
    
    e:---------0----------------0----------------0---------------0-------
    B:-----3-----3---3------3-----3----------3-----3---3-----3-----3---3-
    G:-2-2---2-----2----4-4---4-----2h4--0-0---0-----0---0-0---0-----0---
    D:-------------------------------------------------------------------
    A:-------------------------------------------------------------------
    D:-------------------------------------------------------------------
    
    Guitar…
  • B]-------------------------
    E]-------------------------
    G]----5--5--5--5--5--5--5-5
    D]---7--7--7--7--7--7--7--7
    A]--7--7--7--7--7--7--7--7-
    E]-------------------------
    
    GOODBYE!!
    
    E]--------------------------------------------------------
    B]--------------------------------------------------------
    G]--------------------------------------------------------
    D]--------------------------------------------------------
    A]7-7-7-7-7--7-7-7-7-7--7-7-7--5-5-5-5-5--5-5-5-5-5--5-5-5
    E]5-5-5-5-5--5-5-5-5-5--5-5-5--3-3-3-3-3--3-3-3-3-3--3-3-3
    
    I…
  • Drop D
    
    GUITAR 1
    
    Intro Verse 1
    e|-----------8---------8-----8--------|
    B|---5h6h5h6---5h6h5h6---5h6----------| 10X
    G|------------------------------------|
    D|------------------------------------|
    A|------------------------------------|
    E|------------------------------------|
    
    Intro…
  • drop d
    
    
    intro- and pre-chorus
    
    e--------------------------------------------
    b--------------------------------------------
    g10101010-12-12-9-101010101212-9-------------
    d-xxxxxxxxxxxxxxxxxxxxxxxxxxxxxxx-7-7-8-7-7-8
    a-8-8-8-8-10-10-7-8-8-8-8-10-10-7-7-7-8-7-7-8…
  • ||NOTES|| 
    gtr 1 = lead
    gtr 2 = rhythm
    
    ================================================
    INTRO
    ================================================
    
    gtr 1 (clean)
    
    e|----------------------------------------------------
    g|-10101010-8-8-8-811111111--10101010-8-8-8-811111111-
    b|-101010101010101010101010--101010101010101010101010-
    d|----------------------------------------------------
    a|----------------------------------------------------
    d|----------------------------------------------------…
  • Drop D
    
    Figure out the strumming yourself
    Guitar 1 Part
    
    Intro 2X
    e|--------------------------------|
    B|--------------------------------|
    G|--7--------8--------10----------|
    D|--5--------8--------8-----------|
    A|--5--------6--------8-----------|
    D|--5-----------------8-----------|
    
    Verse…
  • intro
    e|----------------------------------
    B|----------------------------------
    G|-----2------------------2---------
    D|---0-----4---2----4---0-----4---2-
    A|-4---------4--------4---------4---
    D|----------------------------------…
  • Dropped D tuning
    
    Intro:
    PALM MUTED
    E|---------------------------------------------------------------------|
    B|-------6---5-6---6-----6---5-6---6-----6---5-6---6-----6---5-6---6---|
    G|---------5-----5---------5-----5---------5-----5---------5-----5-----|
    D|--0--0---------------0---------------0---------------0---------------|
    A|---------------------------------------------------------------------|
    D|---------------------------------------------------------------------|
    
    
    E|-----------------------------------------------------|
    B|-----------------------------------------------------|
    G|--10--10--10--10--12--9----9/10--10--10--10--12--9---|
    D|--x---x---x---x---x---x----x/x---x---x---x---x---x---|
    A|--8---8---8---8---10--7----7/8---8---8---8---10--7---|
    D|--0---0---0---0---0---0----0/0---0---0---0---0---0---|…
  • Drop your D tuning...
    
    e|--------------------------------------------------------------------|
    B|--------------------------------------------------------------------|
    G|--------------------------------------------------------------------|
    D|------7-----6-------------------------7-----6-------------------6---|
    A|----4-----4-----4-7-----7-----7-----4-----4-----4-7-----7-----7-----|
    E|--4-----4-----4-----4-4---4-4---4-4-----4-----4-----4-4---4-4-----4-|
    
    e|--------------------------------------------------------------------|
    B|--------------------------------------------------------------------|
    G|--------------------------------------------------------------------|
    D|------7-----6-------------------------7-----6-----------------------|
    A|----0-----0-----0-7----7-----7------0-----0-----0-7-----7-----7-----|
    E|--0-----0-----0----0-0---0-0---0--0-----0-----0-----0-0---0-0---0---|…
  • Drop D tuning
    h=hammer
    p=pull-off
    ..=palm mute
    9x
    8x=mute after strumming
    6x
    
    9
    x=mute string
    6
    
    
    Guitar 1
    --------
    Intro                        This part played 4x
    e|-------------------------|-----------------------------------------|
    b|-9~---9~---9~---9~--9-9x-|-9-9-9-9-9x-9-9-9-9-9x-9-9-9x-9-9-9-9-9x-|
    g|-8~---8~---8~---8~--8-8x-|-8-8-8-8-8x-8-8-8-8-8x-8-8-8x-8-8-8-8-8x-|
    d|-6~---6~---6~---6~--6-6x-|-6-6-6-6-6x-6-6-6-6-6x-6-6-6x-6-6-6-6-6x-|
    a|-------------------------|-----------------------------------------|
    D|-------------------------|-----------------------------------------|
    
    Intro…
Наверх