Аккорды «Sentenced»

Sentenced
Sentenced — финская англоязычная металлическая группа, сменившая с момента основания (1989 год) до момента распада (2005 год) несколько различных метал-стилей (олдскульный дэт-метал, мелодичный дэт-метал, дум-метал, готик-метал). Название группы можно перевести с английского как «обречённые», «приговорённые». Коллектив был основан в городке Оулу, Финляндия, гитаристами Миикой Тенкулой (Miika Tenkula) и Сами Лопаккой (Sami Lopakka) и ударником Весой Рантой (Vesa Ranta). Все три этих члена группы… Читать полностью... Sentenced — финская англоязычная металлическая группа, сменившая с момента основания (1989 год) до момента распада (2005 год) несколько различных метал-стилей (олдскульный дэт-метал, мелодичный дэт-метал, дум-метал, готик-метал). Название группы можно перевести с английского как «обречённые», «приговорённые». Коллектив был основан в городке Оулу, Финляндия, гитаристами Миикой Тенкулой (Miika Tenkula) и Сами Лопаккой (Sami Lopakka) и ударником Весой Рантой (Vesa Ranta). Все три этих члена группы оставались в её составе от начала до самого конца. Чуть позже к ним примкнули басист и вокалист Танели Ярва (Taneli Jarva), явившийся также автором логотипа Sentenced, который был пронесён практически через всю историю группы. Ранние записи Sentenced: демо-запись When Death Joins Us… (1990), альбомы Shadows of the Past (1991) и North from Here (1993), а также сингл The Trooper (1993) — были исполнены в стиле экстремального дэт-метала. Но музыка Sentenced постепенно становилась менее «тяжелой», и уже в 1995 году были выпущены два диска в стиле мелодичный дэт-метал: мини-альбом Love & Death и альбом Amok. После записи этих альбомов группу покинул Танели Ярва. Начиная с альбома Down, выпущенного в 1996 г., начинается новая страница в истории группы. В её составе появляется новый вокалист Вилле Лайхьяла (Ville Laihiala), обладающий менее агрессивной манерой пения. За неимением басиста партии баса на этом альбоме были исполнены гитаристами Тенкулой и Лопаккой. В 1997 г. выпускается сборник как ранних, так и недавних песен Sentenced: Story: a Recollection. Диск также включает в себя не издававшуюся композицию No Tomorrow. Некоторые музыкальные критики продолжают именовать Sentenced дэт-металлической группой, но становится очевидным изменение музыкального стиля группы в сторону готического метала. В 1998 г. выходит альбом Frozen, считающийся одним из лучших и классических работ коллектива. В записи диска уже принимает участие новый басист группы — Сами Куккохови (Sami Kukkohovi). Развитие стилю, заложенному дисками Down и Frozen, дают альбомы Crimson (2000) и The Cold White Light (2002). В записях 2002 года появляется довольно много клавишных звуков, раннее не свойственных звучанию группы. В 2005 г. издаётся новый альбом группы. Но… группа объявляет, что диск будет последним в истории коллектива и после него Sentenced прекращает своё существование навсегда. Альбом получает соответствующее этой ситуации название: The Funeral Album («Похоронный альбом»). Sentenced отправляется в «Похоронное турне» (Funeral Tour) по всему миру (в том числе состоялся концерт и в Москве). На протяжении всего тура музыканты в начале концерта выносили на сцену гроб и играли вокруг него (а также иногда предлагали поклонникам «послушать следующую песню изнутри гроба»). Этот же гроб был использован в съёмках последнего клипа Sentenced — «Ever-Frost». Заключительный концерт группы состоялся 1 октября 2005 г. в клубе «Teatria» их родного города Оулу. Концерт был обставлен как грандиозное шоу. В нём также принимал участие бывший басист и вокалист группы — Танели Ярва, который исполнил 5 песен, в том числе и дэт-металлическую Nothern Lights, напомнив поклонникам о раннем этапе творчества Sentenced. Концерт был издан на DVD под названием Buried Alive («Погребённый заживо»). Данный диск включал в себя все клипы, дискографию группы, видео-фрагменты, посвящённые её концертной деятельности, интервью с музыкантами, а также последний видеоклип группы и материалы о его съёмке. Sentenced официально прекратили своё существование после прощального концерта 1 октября 2005 года. 19 февраля 2009 года в возрасте 34 лет ушёл из жизни Миика Тенкула, бывший лид-гитарист и главный автор песен Sentenced. Официальная причина его смерти — сердечный приступ. Миика Тенкула похоронен на кладбище «Kirkkosaari» в его родном городе Мухос (Финляндия). Скрыть...
Популярные аккорды Sentenced:
алфавиту | просмотрам | случайно
  • Rest
    
    Intro
    |---------------------------|---------------------------------------------|
    |---------------2-2-2-2-----|---------------------------------------------|
    |-5-5-5-4-5-----------------|------------0---0-0-0-----------2---2-2-2----|
    |---------------------------|----2-2-2-0-----------0-0-0-0----------------|
    
    Repeat…
  • D#||------------------|------------------|------------------|
    A#||------------------|------------------|------------------|
    F ||------------------|------------------|------------------|
    C ||------------------|------------------|------------------|…
  • Tune Down to D (DGCFAD)
                  
    |-hold-----------------------------------------------------------------------|
    |-17~-----17-17-17-16-16-16---------14-17b19r17-14---------------------------|
    |-16~(18)-16-16-16-16-16-16-14~--14----------------16b18r-14--16-14p16h14-13-|
    |----------------------------------------------------------------------------|
    |----------------------------------------------------------------------------|
    |----------------------------------------------------------------------------|…
  • tune DOWN one step
    
      rhy fig 1.
      pm.----------------------------------------------|   pm  pm  pm  
    d|-----------------------------------------------------------------|
    A|-----------------------------------------------------------------|
    F|-----------------------------------------------------------------|
    C|-2-2-2-2-2-2-2-2-----------------2-2-2-2-2-2-2-2---7---7---7---7-|
    G|-0-0-0-3-3-3-3-3-2-2-2-5-5-5-5-5-0-0-0-3-3-3-3-3-5-5-5-5-5-5-5-5-|
    D|-----------------0-0-0-3-3-3-3-3---------------------------------|…
  • tune down 1 step
    
                                      -----------------------------------|  
      rhy fig1.                       |1.
    d|------------------------------------------------------------------|
    A|'-----3-------3-------3------3-------3-------3-------3--------3---|
    F|----2---2---2---2---2---2--2---2---2---2---2---2---2---2----2---2-|
    C|--0------------------------------0--------------------------------|
    G|'---------1------------------------------1-------3--------3-------|
    D|------------------1-------3---------------------------------------|…
  • E tuned.
    
    VERSES:
    
    Hm		  A
    All bridges... on fire!
       D	      A         Hm
    As onward and onward we ride
                    A
    The smoke rises higher, higher...
    D           A         Hm
    Up the ever-darkening sky…
  • tube down to D
                     rhy fig 1.
    d|-------------|-------|------|-----------|-----|-------|-------|
    A|-------------|-------|------|-----------|-----|-------|-------|
    F|-------7-5-4-|-2-----|----2-|-2---------|-----|-2-----|-----2-|
    C|-------7-5-4-|-2-----|----2-|-2---------|-----|-2-----|-----2-|
    G|-------5-3-2-|-0-----|----0-|-0---------|-----|-0-----|-----0-|
    D|-------------|-------|------|-----------|-----|-------|-------|…
  • tune Down to D
    
    riff 1
        D5          D5                   D5          D5          C5
    d|-------------------------------------------------------------------|
    A|-------------------------------------------------------------------|
    F|-------------------------------------------------------------------|
    C|------7-7-6-6-7-7---------5-5----------7-7-6-6-7-7---------5-5-----|
    G|--5-5-------------7-7-8-8-----8-8--5-5-------------7-7-8-8-----8-8-|
    D|-------------------------------------------------------------------|…
  • Intro
    |------------------------------------------------------------------|
    |-4\---------------------------------------------------------------|
    |------2-2-2---2-2---2---2---2-0---2-5-5-5---5-5---5---5—5-4---0---|
    |------------------------------------------------------------------|
    
    |--------------------------------------------------|
    |--------------------------------------------------|
    |------2-2-2---2-2---2---2---2-0---2-5-5-5--5-5----|
    |--------------------------------------------------|
    
    Verse…
  • TUNING D (D,G,C,F,A,d)
    
    INTRO (clean) (this is tabbed very roughly)
    |-------------0--------0-------------|--------------------0-------------|
    |---------1h3-1--0---------0---------|----------1p0----0------0---------|
    |-----2---2---2--0-0-----------0-----|-------2--2---2--0----------0-----|
    |---2-----2---2--2-----------------2-|-----3----3------2--------------2-|
    |-0-----0-0---0--2-------------------|---3-------------2----------------|
    |----------------0---0---0---0---0---|-1---------------0----0---0---0---|
    
    |-------------0--------0-------------|------------------0-------------|
    |---------1h3-1--0---------0---------|---------1p0----3-----3---------|
    |-----2---2---2--0-0-----------0-----|-------2-----2--2---------2-----|
    |---2-----2---2--2-----------------2-|-----3----------0-------------0-|
    |-0-----0-0---0--2-------------------|---3------------0---------------|
    |----------------0---0---0---0---0---|-1--------------2---2---2---2---|
    
    
    RIFF…
  • Rest until 00:09
    
    Verse 1
    |------------|-------------|------------|-----------|
    |------------|-------------|------------|-----------|
    |--3------3--|--3------3---|------------|-----------|
    |------------|-------------|--0------0--|--0-----0--|
    
    |------------|-------------|------------|-----------|
    |------------|-------------|------------|-----------|
    |--3------3--|--3------3---|------------|--5-----5--|
    |------------|-------------|--3------3--|-----------|
    
    |------------|-------------|------------|-----------|
    |------------|-------------|------------|-----------|
    |--3------3--|--3------3---|------------|-----------|
    |------------|-------------|--3------3--|--3-----3--|
    
    |------------|-------------|------------|-----------|
    |------------|-------------|------------|-----------|
    |--5------5--|--5------5---|--0------0--|--0--------|
    |------------|-------------|------------|-----------|
    
    Verse…
  • Intro (Acoustic) Am7 
    
    --------------|-------------|------------|-----------------------------
    -------1-0----|------0------|-----1------|-1-----0---------------------
    -------0---0--|------0-0----|-----0-0----|---0-----0-------------------
    ----2--2----2-|---2------0--|---2-2--2---|-2---0-----0-----------------
    --0----3~-----|-0----2~-----|-0---3~---0-|-3-----2---------------------
    --------------|-------------|------------|-----------------------------
    
    Verse…
  • E5                      E5           C5          E5 
    c |---------------------------------------------------------------------------|
    G |'--------------------------------------------------------------------------|
    D#|--------0-----------------------0-----/5--4--2--4--------0-----------------|
    Hb|-----2-----------------------2------------------------2--------------------|
    F…
  • Intro
    |----------------------------------------------------------------------------------|
    |-----------------------------------------------------------------------3-1--------|
    |----------------------------------------------------------------------------4-3-4-|
    |-1---1---1---1---1---1---1---1---1---1---1---1---1-1-1-1-----1--------------------|
    
    Verse
    |------------------------------------------------------------------|
    |-----3-----------5-----------6-------------5--------3-------------|
    |-------------4-----------4------------4------------------4---3----|
    |-4-------4-----------4-----------4-------------4----------------1-|
    
    Fill…
  • in Standard C tuning. 2 Steps down.
    
    
    ||---------------------------------------------------------|| 
    ||---------------------------------------------------------||
    ||-10-12h-10~--10-12-13-12-10----10------------------------||
    ||----------------------------12----12-10~~----------------||
    ||------------------------------------------10-12h10h12-9~~||
    ||---------------------------------------------------------||
    
    ||---------------------------------------------------------||…
  • Tune Gtr to Normal tuning (EADGBE)
    
    INTRO
    Lead: (2 times alone, then together with rhytm guitar)
    |---------------------------------------------------
    |---------------------------------------------------
    |---------------------------------------------------
    |--12-----12-----12-----12-----12-----12--13--15--13
    |-----10-----10-----10----11/13---13----------------
    |---------------------------------------------------
    
    
    ---------------------------------------------------|
    ---------------------------------------------------|
    ---------------------------------------------------|
    --12--10--12-----12-----12-----12--10--10--8--7--5-|
    -------------10-----10-----10--------8---8--6--5---|
    ---------------------------------------------------|
    
    
    Rhytm:…
  • tune down to D
    
    
      w/rhy.fig.1.
    d|---------------|---------------------|------------------|----------------|
    A|-----5--3------|---------------------|-----5--3--8-----|---------------'|
    F|-2---------4p0-|-4--4h5p4-0-2--------|-2--------------4-|-4h5p4-0-2------|
    C|---------------|--------------3--2p0-|------------------|-----------3~~--|
    G|---------------|---------------------|------------------|---------------'|
    D|---------------|---------------------|------------------|----------------|…
  • Tuning: D standard ( D G C F A D )
    
    Guitar Solo - 1:31 
    
    |----------------------------------------------------------------------|
    |------------11--10----------------------------------------------------|
    |--12~~--12----------10------------------------------------------------|
    |------------------------10--------------10----------------------------|
    |----------------------------13--12--13-----12--13~--10--13--12h13p12--|
    |----------------------------------------------------------------------|
    
    |----------------------------------------------------------------------|
    |------------------------------------------------18--------------------|
    |---------------------------------------15--17---17b(19)r17--15--14----|
    |----------------------------------/17---------------------------------|
    |--10--13--12h13p12--10------10~---------------------------------------|
    |------------------------13--------------------------------------------|
    
    |----------------------------------------------------------18------18--|
    |--------------------------------------------------------------15------|
    |--15--14~~\----15--14--15--------15--14--15--17~--15--17--------------|
    |---------------------------17~----------------------------------------|
    |----------------------------------------------------------------------|
    |----------------------------------------------------------------------|
    
    |--17------17--15------------------------------------------------------|
    |------15----------18--15--------------------16------------------------|
    |--------------------------17--15--17b(19)-------17b(19)r17---14~~~----|
    |----------------------------------------------------------------------|
    |----------------------------------------------------------------------|
    |----------------------------------------------------------------------|
    
    |------------|
    |------------|
    |------------|
    |--7---------|
    |--7---------|
    |--5---------|
    
    Classical…
  • intro x2
    |-------------------------------------------------------------------|
    |-------------------------------------------------------------------|
    |-4-4-4-4-4-4-4-4-4-4-4-4-4-4-4-4-----------------2-2-2-2-2-2-2-2-2-|
    |---------------------------------0-0-0-0-0-0-0-0-------------------|
    
    Verse
    |--------------------------------------------------------------------|
    |---------------------------------------------------4----2-----2-1---|
    |-4-4-4-4-4-4-4-4-------------------2-2-2-2-2-2-2-2----------------2-|
    |-----------------0-0-0-0-0-0-0-0-0------------------0-0---0-0-------|
    
    |--------------------------------------------------------|
    |--------------------------------------------------------|
    |-4-4-4-4-4-4-4-4-------------------2-2-2-2---4-4-----2--|
    |-----------------0-0-0-0-0-0-0-0-0---------------0-0----|
    
    pre-chorus
    |-----------------------------------------------------|
    |-----------------------------------------------------|
    |-4-4-4-4-4-4-4-4-------------------2-2-2-2---4-2-1---|
    |-----------------0-0-0-0-0-0-0-0-0-------------------|…
  • Rest until 1:15
    
    Verse
    |------------------------------------|
    |--------------------------------5---|
    |-7-7----2-3-3---5—5---5-5---5-----5-|
    |--------------------------5---5-----| A
    
    |------------------------------------|
    |------------------------------------|
    |-7-7----2-3-3---5—5---5-5---5-------|
    |--------------------------5---5--3-2|…
  • E:----------------------0-----------
    H:--0--------3--1----3-----1--0-----
    G:-----0--0---------2--2--2-2--2-0--
    D:-2--2--2--2--2---3--3--3---3--3-3-
    A:0--0--0--0--0---------------------
    E:----------------------------------…
  • tune down 1/2 step
     
      INTRO
        Dm
    eb|---------0h1-------------0h1---------------------------|
    Hb|-3-----3---------3-----------3-----3-------------------| intro menee 
    Gb|-2---2---------2-------2---------2---2-0---------------|…
  • Intro x3
    |------------|
    |------------|
    |-0-0--0-0-0-|
    |------------|
    
    Intro P2
    |-------------------------------------------------------------------|
    |-------------------------------------------------------------------|
    |-------------------------------------------------------------------|
    |-5-5-5-5-5-5-5-5-5-8-8-8-8-8-8-8-8-3-3-3-3-3-3-3-3-1-1-1-1-1-1-1-1-|
    
    |-------------------------------------------------------------------|
    |-------------------------------------------------------------------|
    |-------------------------------------------------------------------|
    |-5-5-5-5-5-5-5-5-5-8-8-8-8-8-8-8-8-3-3-3-3-3-3-3-3-1-1-1-1-0-0-----|
    
    Verse
    |-------------------------------------------------------------------------|
    |-------------------------------------------------------------------------|
    |-------------------------------------------------------------------------|
    |-5-5--5-5-5--8-8--8-8-8--8--7-8--7-8-7--5-5--5-5-5--8-8--8-8-8--8--5-5-5-|
    
    Bridge…
  • tune down to D
    
                                                    
     d|------------------------------------------------|
     A|------------------------------------------------|      (first time)
     F|-2---4-5-----------------------------------[0]--|…
  • Lick 1:
    
    -----5---------------------------------------------------|
    888-8-5-5h6p5-------5--8-6p5---------6-5----------6-5----|
    -------------75-7-77-5------75----------75-----------75--|
    ------------------------------8-75-8------78-75-8------7-|
    ----------------------------------8------------8---------|
    
    
    Lick…
  • tune down to D
    
     intro riff
    d|-----------------|-----------------|-----------------|
    A|-----------------|-----------------|-----------------|
    F|-2-2-2-2-2-2-2-2-|-2-2-2-2-2-2-2---|-0-0-0-0-0-0-0-7-|
    C|-2-2-2-2-0-2-3-2-|-2-2-2-2-0-2-3-0-|-2-2-2-2-0-2-3-7-|
    G|-0-0-0-0-0-0-0-0-|-0-0-0-0-0-0-0-0-|-3-3-3-3-3-3-3-5-|
    D|-----------------|-----------------|-----------------|…
  • tune down to D ( one Step down )
    
    riff 1
       E5        D5        C5        A5
    d|--------------------------------------------|
    A|--------------------------------------------|
    F|--------------------------------------------|
    C|-2--5--7---5--4--5---4--5--7---9--7--5-4----|
    G|--------------------------------------------|
    D|--------------------------------------------|…
  • Guitar 1 - Intro x2
    E-------------|-----------------|--------------|-----------------|
    B-8-7-8-7-8-7-|-7h8p7-----------|-8-7-8-8-10-7-|-7h8p7-----------|
    G-------------|-------7-9-7-9---|--------------|-------7-9-7-9-5-|
    D-------------|---------------9-|--------------|-----------------|
    A-------------|-----------------|--------------|-----------------|
    E-------------|-----------------|--------------|-----------------|…
  • INTRO GTR 2                                       |Start FILL 1 
    |------------------------|------------------------|-------------------------|
    |------------------------|------------------------|-------------------------|
    |------------------------|------------------------|-------------------------|
    |-5-5--2-2--5-5--2-2--2-2|-2-2--2-2--4-4--4-4--4-4|-5-5--2-2--5-5--2-2--2-2-|…
  • tune down 1/2 step 
       riff 1.
    Gb|-------------------------------------------------|
    Db|------------9---9--7h9-7-----------9---9--7h9-9--|
    Ab|--7---7-5-7--------------5---5-3-5---------------|
    Eb|-------------------------------------------------|…
  • Tune D, G, C, F
    
    |------------------------------------------------------------------------------------------------|
    |------------------------------------------------------------------------------------------------|
    |--------------3-3-3-3-3-3-3-3-3-3-3-3-3-3-3-3-2-2-2-2-2-2-2-2-2-2-2-2-2-2-2-2-2-3-3-3-3-3-3-3-3-|
    |-2-2-2-2-2-2------------------------------------------------------------------------------------|
    
    |-------------------------------------------------|
    |-------------------------------------------------|
    |-0-0-0-0-0-0-0-0-2-2-2-2-2-2-2-2---2-3-2-3-2-----|
    |---------------------------------5-----------5-3-|
    
    |----------------------------------------------------------------------------------|
    |----------------------------------------------------------------------------------|
    |--3-3-3-3-3-3-3-3-3-3-3-3-3-3-3-3-2-2-2-2-2-2-2-2-2-2-2-2-2-2-2-2-2-3-3-3-3-3-3---|
    |----------------------------------------------------------------------------------|
    
    -------------------|
    -------------------|
    3-3-0-0-0-0-0-0----|
    ---------------2-2-|
    
    
    Verse…
  • Tune Down to D
    
    Legend
    
    h - hammer
    p - pull off
    b - bend up
    r - release bend
    / - slide up
     - slide down
    v - vibrato
    * - trill
    t - tap
    x - mute/rake
    ^ - harmonic
    . - palm mute
    # - strum chord
    
    
    -------------------------0----------------------------------------------------|
    --1--0-----------1h3p1-----3---1--0---------------1---------------------------|
    --0----0---------------0-------0----0-------------0-0-------------------------|
    --2------2h3p2-----------------2------2h3p2-------2-0-------------------------|
    --3------------3---------------3------------3-----3-2-------------------------|
    ----------------------------------------------------3-------------------------|…
  • tuning is standerd down a whole step (DGCFAd)
    
    RIFF 1 (clean)
    ||----------------|---------------|---------------|---------------|
    ||----------------|---------------|---------------|---------------|
    ||.-------0-------|-2-----0-------|-------0-------|-2-----0-------|
    ||.---2-------2---|---2-----2---2-|---2-------2---|---2-----2---2-|
    ||----------------|---------------|---------------|---------------|
    ||--0---0---0---0-|-----0-----0---|-0---0---0---0-|-----0-----0---|…
Наверх