Аккорды «Sepultura»

Sepultura
Эта thrash-metal-группа была сформирована в Белу-Оризонти, Бразилия, в 1984 году братьями Игорем (р. 24 сентября 1970 г., Бразилия; ударные) и Максом Кавалера (р. 4 августа 1969 г., Бразилия; вокал, гитара), совместно с Пауло Джейр (р. 30 апреля 1969 г., Бразилия; бас) и гитаристом Джаиро Гуэдесом. "Sepultura" – по-португальски значит могила, что как раз подходит к определению относительно характера музыки, которая имеет дело с темами смерти и разрушения, навеянными влиянием групп типа "Slayer"… Читать полностью... Эта thrash-metal-группа была сформирована в Белу-Оризонти, Бразилия, в 1984 году братьями Игорем (р. 24 сентября 1970 г., Бразилия; ударные) и Максом Кавалера (р. 4 августа 1969 г., Бразилия; вокал, гитара), совместно с Пауло Джейр (р. 30 апреля 1969 г., Бразилия; бас) и гитаристом Джаиро Гуэдесом. "Sepultura" – по-португальски значит могила, что как раз подходит к определению относительно характера музыки, которая имеет дело с темами смерти и разрушения, навеянными влиянием групп типа "Slayer" и "Venom". В 1985 году "Sepultura" записала альбом совместно с бразильской командой "Overdose" (которую "Сепультура" поддерживала во время их первого гига), но этот дебют, "Bestial Devastation", был невысокого качества и не имел широкого распространения. С выходом их первого сольного диска "Morbid visions" группа поимела большой успех по всей Бразилии и принялась гастролировать по родной стране. Однако вскоре после этого Гуэдес решил покинуть состав "Сепультуры". Команда принялась искать нового гитариста, и, в конце концов, им стал талантливый музыкант Андреас Киссер. В 1987 году выходит диск "Schizophrenia", включающий в себя такие хитовые вещи, как "Escape to the void" и инструментальную пьесу "Inquisition symphony". "Sepultura" становится известной вне Бразилии. В Европе выходит 30-тысячным тиражом бутлег "Шизофрении". Получив широкую известность, группа подписала контракт с датским лейблом "Roadrunner". После выхода альбома "Beneath the remains" команда предприняла свой первый международный тур. Они гастролируют по Европе, США и Мексике. Став первой всемирно известной бразильской металлической командой, "Sepultura" выступила в качестве хедлайнеров на втором фестивале "Rock in Rio". После этого группа дает 3 гига перед 40-тысячной аудиторией в Сан-Паулу. Во время одного из этих концертов начались беспорядки, и один человек был убит. После этого случая "сепультуровцы" долгое время не давали представлений в Бразилии. Группа отправилась в зарубежное турне. Ее принимали в Греции, Японии, Австралии, Голландии и Индонезии. В 1993 году вышел альбом "Chaos A.D.", на котором "Sepultura" использовала новые музыкальные идеи. Клип на песню "Territory" пользовался большим успехом в Израиле. В Бразилии группе была вручена награда от "MTV music video awards" за лучший видеоклип года. "Sepultura" стала первой бразильской металлической командой, давшей концерты в России и первой латиноамериканской группой, участвовавшей в фестивале "Монстры рока" в Донингтоне (Англия). В 1994 году Макс совместно с Алексом Ньюпортом из "Fudge tunnel" замутил параллельный проект "Nailbomb". Новая команда просуществовала недолго, успев записать пару дисков, в создании которых приняли участие Игорь Кавалера и Андреас Киссер. На следующем альбоме "Сепультуры" "Roots" присутствовали элементы бразильской народной музыки, что и следовало из его названия. Большой популярностью с этого альбома пользовались композиции "Roots bloody roots", "Attitude" и особенно "Ratamahatta", видеоклип на которую получил награду "Лучшее рок-видео" на бразильском MTV. Группа опять колесила по всему миру и участвовала в различных фестивалях. Со временем в группе начались разногласия между Максом и остальными участниками коллектива, в результате которых Макс покинул состав и основал новый проект "Soulfly". Оставшиеся "сепультуровцы" не стали вешать носы, а втроем стали готовить материал для следующего диска. В роли вокалиста попробовал себя Андреас, но у него это не очень получалось, и группа стала подыскивать себе нового певца. Таким человеком оказался Деррик Грин, хорошо вписавшийся в коллектив. К этому времени почти все инструментальные партии для нового альбома были готовы и оставалось только наложить на них вокал, что и было незамедлительно проделано, в результате чего на свет появился "Against", получившийся очень эмоциональным. Тур в поддержку этого альбома прошел очень успешно. Последний диск "Nation" был встречен поклонниками на ура и сразу же получил "золото". В 2008 году Макс со своим братом Игорем, также покинувшим в конце концов Sepultura, впервые за 10 лет объединились вместе для сайд-проекта Cavalera Conspiracy и записали первый альбом Inflikted, получивший высокую оценку критиков и занимающий не последние места в хит-парадах многих стран. Состав Нынешний Деррик Грин (Derrick Green) — вокал, гитара Андреас Киссер (Andreas Kisser) — гитара Пауло Дж. (Paulo Jr.) — бас Элой Касагранде (Eloy Casagrande) - ударные Бывшие члены группы Макс Кавалера (Max Cavalera) — вокал, ритм-гитара (1984–1996), сейчас в Soulfly, Cavalera Conspiracy Игор Кавалера (Igor Cavalera) — ударные (1984–2006), сейчас в Cavalera Conspiracy Джайро Гуэдес (Jairo Guedes) — ведущая гитара (1984–1986) Вагнер Ламуньер — вокал, гитара (1984) Рой Майорга — ударные (в отсутствие Игора Кавалеры в 2006-м), сейчас в Stone Sour Джин Долабелла (Jean Dolabella) — ударные Дискография Morbid Visions (1986) (ремастеринг в 1990) Schizophrenia (1987) (ремастеринг в 1990) Beneath the Remains (1989) Arise (1991) Chaos A.D. (1993) Roots (1996) The Roots of Sepultura (1996) Blood Rooted (1997) Against (1998) Nation (2001) Under A Pale Grey Sky (2002) Roorback (2003) Live In Sao Paulo (2005) Dante XXI (2006) The Best of Sepultura (2006) A-Lex (2009) Kairos (2011) Скрыть...
Популярные аккорды Sepultura:
алфавиту | просмотрам | случайно
  • Legend
    ------
    
     h  = hammer-on
     p  = pull-off
     b  = bend
     r  = bend release
     /  = slide up/down
     = natural harmonic
    [5] = artifical harmonic
     ~  = vibrato
     tr = trill
    
    
    
    E|-----------------------||-------------||-----------------------------|--------
    B|-----------------------||-------------||-----------------------------|--------
    G|-----------------------||-------------||-----------------------------|--------
    D|-----------------------||-------------||-----------------------------|--------
    A|---------3----------3--||-3--3--3--3--||-----------------------------|--------
    E|-0-0-0-0-1--0-0-0-0-1--||-1--1--1--1--||-0-0-0-0-0-0-0-0-6p4-0-0-0-0-|-10p9-0-…
  • INTRO (Come in at 7 sec.) (clean)
     G|--------------------------------------|
     D|--------------------------------------|
     A|--54444-54444-54444-54444-54444-54444-|
     D|--------------------------------------|…
  • Bass fig 1
    G-
    D-
    A-
    E-000000000000076 (4 times)
    Riff A
    G-
    A-
    D-
    E-0   2    3      0   3  sl 6     (2 times)
    
    Bass fig 1 (4 times)
    Riff B
    G-
    D-
    A-
    E-0   1   4    0 0 0 0  1       1 (3 times)
    
    Riff C
    
    G-
    D-
    A-…
  • Tune bass from low to high (D, G, D, G)
    meaning tune down top 2 strings 1 whole step
    
    
    After drum intro       (4 times)
    ||-------------------------||
    ||*-----------------------*||
    ||*-----------------------*||
    ||---1--1--1--1--0---------||…
  • 5-string bass in standard tuning (B,E,A,D,G)
    
    INTRO/VERSE
    
    G||--------------------------|
    D||--------------------------|
    A||--------------------------|
    E||--------------------------|
    B||--0--1--1--0--1--1--0--1--|
    
    
    CHORUS:
    
    A||--------------------------|--------------------------|
    E||--------------------------|--------------------------|
    B||--0--1--1--0--1--1--1--2--|--0--1--1--0--1--1--1--2--|…
  • Intro drums
    
    ------------------------------------------------------------
    ------------------------------------------------------------
    ------------------------------------------------------------
    ---------------------------------------------------9-----8--
    -----------------------7-6-7-----------------------7-----6--
    --0-0-0--6-5-6--0-0-0---------0-0-0--6-5-6--0-0-0----0-0----
    
    
    
    Verse
    ------------------------------------------------------
    ------------------------------------------------------
    ------------------------------------------------------
    ------------------------------------------------------
    -----------------------------5-6-8-5-1-0---5-6-8-5-1-0
    -5-6-8-5-1-0----5-6-8-5-1-0---------------------------
    
    Little…
  • Tuning: D {D,G,C,F}
    
    Intro
    F:-------------------|
    C:-------------------|
    G:-------------------|
    D:-0-0-0-00-0-00-0-0-|
    
    Verse (also played under solo)
    F:---------------------|
    C:---------------------|
    G:---------------------|
    D:-55-5-55-5-55-5-00-0-|
    
    Chorus
    F:---------------------|
    C:---------------------|
    G:---------------------|
    D:-66-6-66-6-00-0-00-0-|
    
    Played…
  • tuning C----G----D#----A#----F----A#
    
    2 1/2
    
    
    NOTE : IN THIS SONG
    NECESSARY USING
    0.12 IN THE ALL 
    STRINGS AND THIS TUNING .
    
    NOTE2 :
    
    ( ) = GHOST NOTE
    ~ / ~ = BEND UP
    ~ / ~ = BEND DOWN
     = SLIDE DOWN
    / = SLIDE UP
    P = PULL…
  • 5-string bass tuned down 1/2 step
    
    
    INTRO RIFF:
    
    G|--------------------------------------------------|
    D|--------------------------------------------------|
    A|--------------------------------------------------|
    E|--------------------------------------2--2--1--1--|
    B|--1--0--0--1--0--0--1--0--0--1--0--0--------------|
    
    
    VERSE…
  • RIFF 1:
    |--------|
    |--------|
    |--------|
    |--9--10-12-|--8--9--|
    |--7--8--10-|--6--7--|
    |--------|
    
    RIFF 2:
    --------------------------------------|
    --------------------------------------|
    --------------------------------------|
    |---------9-9--------10-10--------8-8---------9-9-|
    |---------7-7---------8-8---------6-6---------7-7-|
    |-0-0-0-0-----0-0-0-0-----0-0-0-0-----0-0-0-0-----|…
  • Tuning:g
           d
           g
           d
    
      Main RIFF
    -|-----------------------------------------------|-
    *|-----------------------------------------------|* Repeat x?
    *|-------------------------------------7---------|*
    -|-0-0-0-0-0-0-0-6(hold)-0-0-0-0-0-0-0---6(hold)-|-…
  • e|-------------------|
    B|-------------------|
    G|-------------------|
    D|-------------------|
    A|--2-2-2-5-5-4-4-4--|
    E|--0-0-0-3-3-2-2-2--|
    
    e|------------------|
    B|------------------|
    G|------------------|
    D|--------33333333--|
    A|--2--5--11111111--|
    E|--0--3------------|
    
    e|--------------------|
    B|--------------------|
    G|--------------------|
    D|--------------------|
    A|--4-4-2-2-2-2-2-2---|
    E|--2-2-0-0-0-0-0-0---|
    
    e|------------|
    B|------------|
    G|------------|
    D|------------|
    A|--4-5--4-5--|
    E|--2-3--2-3--|…
  • Legend
        ------
        h     - Hammer-on
        p     - Pull-off
        ~     - Vibrato
        /     - Slide up
             - Slide down
        Repeat previous bar
       %    - Repeat previous two bars
     Not Sure - Riff may not be accurate
    
    --------------------------------------------------------------------------------
    This…
  • Tune down one whole step.
    
    6-D 3-F
    5-G 2-A
    4-C 1-d
    
     Intro
    |-----------------|
    |-----------------|
    |-----------------|
    |-----------------|
    |-7-8-----4-3-2h3-|
    |-5-6-0-0-2-1-0h1-|
    
     Main riff
    |----------------|
    |----------------|
    |----------------|
    |----------------|
    |-7^-----4-3-2h3-|
    |-5^-0-0-2-1-0h1-|…
  • SHOW ME THE WRATH - RIFFS
    
    Riff A:
    e:---------------------------------|
    b:---------------------------------|
    g:---------------------------------|
    D:---------------------------------|
    A:---2-3-------1-----2-3---------1-|
    E:-0-----0-1-2---2-0-----0-1-2-3---|
    
    
    Riff…
  • The tuning is in B Flat
    
    |----------|------------------------------|
    |----------|------------------------------|
    |----------|------------------------------|
    |----------|------------------------------|
    |----------|------------------------------|
    |-0-0-0-0--|-5\4-0-4\3-0-3\2-0-2\1-0-2\1--|…
  • RIFF 1:
    |-12-13-12-13-12-13-12-13-12-13-12-13-12-13-12-13-12-13-12-13-|
    --------------------------------------------------|
    --------------------------------------------------|
    --------------------------------------------------|
    --------------------------------------------------|
    --------------------------------------------------|
    
    RHYTHM…
  • Tuning (D G C F A D)
    
    Q=230
    5/4
    
         Q.    Q.    Q   Q     E  E  E  Q.    Q   Q
    ||----------------------|------------------------|
    ||o---------------------|------------------------|
    ||----------------------|------------------------|
    ||--12----12----12--12--|-12s13s12-12----12--12--|
    ||o---------------------|------------------------|
    ||--10----10----10--10--|-10s11s10-10----10--10--|…
  • e:-------------------------------|-------------------------------|
    	B:-------------------------------|-------------------------------|
    	G:-------------------------------|-------------------------------|
    	D:-------------------------------|-------------------------------|
    	A:-------------------------------|-------------------------------|
    	E:-------------------------------|-------------------------------|
    
    
    		DEFINITIONS…
  • e|----------|
    B|----------|
    G|----------|
    D|----------|
    A|-(2)---6--|
    E|--0-------|
    
    e|-------------------|
    B|-------------------|
    G|-------------------|
    D|-------------------|
    A|-------------------|
    E|--11111...1-01-01--|…
  • Gtr I (D G C F A D) - 'Untitled'
    Gtr II (D G C F A D) - 'Untitled'
    
        Q=205
       4/4
        Gtrs I, II
        PM--------------------------------------------------|
        S S S S E S S S S E S S S S   E S S S S E S S E S S…
  • Riff 1
    A--4-4------|
    E------4-4--|
    
    Riff 2 (sounds like a standard triplet rhythm)
    A-------------------------|
    E--4-4-444-------5-5-555--|
    
    Riff 3
    A------------------------------------------------------|
    E--0-6-5-4---0-6-5-3----000-000-6-5-4--000-000-6-5-3---|
    
    Riff…
  • Tuning (D G C F A D)
    
    Q=160
    4/4
    
        Q.   Q.   Q    +E  Q.   Q  Q   4x
    ||---------------|-----------------||
    ||o--------------|----------------o||
    ||---------------|-----------------||
    ||--9----9----9--|-(9)-9----8--8---||
    ||o-7----7----7--|-(7)-7----7--7--o||
    ||---------------|-----------------||
    
    
    4/4…
  • Drop D tuning
    Db Ab Db Gb Bb Eb
    
    Intro
      Play Times 4
    |-----|
    |-----|
    |--7--|
    |--7--|
    |--5--|
    |--0--|
    
    |--------------------------------------------------------------------|
    |--------------------------------------------------------------------|
    |--7--7--7--7--7--7--7--7--(5)-(5)-4--4--4--4----4--4--4--4--4--4----|
    |--------------------------------------------------------------------|
    |--5--5--5--5--5--5--5--5--3----3--2--2--2--2----2--2--2--2--2--2----|
    |--0--0--0--0--0--0--0--0--0----0--0--0--0--0----0--0--0--0--0--0----|…
  • Tuning E A D G B E
    
    
     Verse
    
      [------------PM------------]          [-PM-]       [-PM-]
    |------------------------------------------------------------|
    |------------------------------------------------------------|
    |------------------------------------------------------------|
    |-3-3-3-3-3-3-3-3-3-3-3-3-3-3--3--3--3--------3--3--3--------|
    |-1-1-1-1-1-1-1-1-1-1-1-1-1-1--1--1--1--------1--1--1--------|
    |---------------------------------------1-111---------1-111--|…
  • Tuning:standard
       
                       verse
                
    e|--------------------------------------------------------|
    B|--------------------------------------------------------|
    G|--------------------------------------------------------|
    D|--5/7--7-7---10/7---7---5/7---xxxx-------(x7)-----------|
    A|--3/5--5-5---8-/5---5---3/5---xxxx----------------------|
    E|--------------------------------------------------------|…
  • INTRO:                                               
    ------------------------------------------------| 2 раза.
    ------------------------------------------------| 
    |-----15------15------15-----15-----15-----15-----15-----15-|
    |-----14------14------14-----14-----14-----14-----14-----14-|
    |-----13------13------13-----13-----13-----13-----13-----13-|
    |-0-0-----0-0-----0-0----0-0----0-0----0-0----0-0----0-0----|
    
    RIFF…
  • Gtr I (E A D G B E) - 'Guitar'
    
    Q=160
    4/4
    Gtr I
         E.  E.  Q   E  E  E    E.  E.  Q   E  E  E  3x
    ||-----------------------|-----------------------||
    ||o----------------------|--7---7---7---7--7--7-o||
    ||--10--10--10--10-10-10-|-10--10--10--10-10-10--||
    ||-----------------------|-----------------------||
    ||o--8---8---8---8--8--8-|----------------------o||
    ||-----------------------|-----------------------||…
  • Intro:	  x8
    Db|---------|
    Ab|---------|
    Eb|---------|
    Bb|-00--00--|
    Introverse:		 x3			  x1
    Db|------------------------|------------------------|
    Ab|------------------------|------------------------|
    Eb|-6h7----6h7-------------|-6h7----6h7-------------|
    Bb|----0000---0000-3p2/6p5-|----0000---0000-3-r-6p5-|
    Verse:…
  • Tuning (Bb Eb Ab Db F Bb)
    
    
    Q=145
    4/4
    
          E.  S  +E    Q   E   Q   8x       E.  S  +E    Q   E   Q   4x
    ||-----------------------------||-||-----------------------------||
    ||o---------------------------o||-||o---------------------------o||
    ||--/16--16-(16)-/16--16-/16---||-||-----------------------------||
    ||-----------------------------||-||-----------------------------||
    ||o-/14--14-(14)-/14--14-/14--o||-||o-/15--15-(15)-/15--15-/15--o||
    ||-----------------------------||-||--/13--13-(13)-/13--13-/13---||…
  • Tuning D G C F A D
    
    Q=115
    4/4
    
        PM--------------------------------------|
        E  E  E E  E  E E  E    E  E  E E  E  E Q   5x
    ||------------------------|---------------------||
    ||o-----------------------|--------------------o||
    ||--------5-------5-------|-------5-------5-----||
    ||-----5-------5-------5--|----5-------5--------||
    ||o-----------------------|--------------------o||
    ||--8-(8)---8-(8)---8-(8)-|-8-(8)---8-(8)---8---||…
  • x5
    ----------------------|  ----------------------| 
    ----------------------|  ----------------------|
    ----------------------|  |--h------------------------------|
    ----------------------|  |-/------------------------------|
    |-3-2-----------------------------|…
  • e|---------------------|
    B|---------------------|
    G|---------------------|
    D|-----------------4-3-|
    A|-----2----2----2-2-1-|
    E|--00-0-00-0-00-0-----|
    
    e|---------------------------------------------|
    B|---------------------------------------------|
    G|---------------------------------------------|
    D|--------------------------5------------------|
    A|-------------5------------3----------------5-|
    E|-22222222222-3-2222222222---22222222222222-3-|
    
    e|---------------------|
    B|---------------------|
    G|---------------------|
    D|---------------------|
    A|--5--4----5--4----2--|
    E|--3--2----3--2----0--|…
  • Dropped "D" tuning
    Drop down 1/2 step
    
    1:Eb  4:Db   
    2:Bb  5:Ab     
    3:Gb  6:Db
    
    Bass riff in the start
    Eb-------|
    Bb-------|
    Gb-------|
    Db-----0-|  Repeat and strum D chord a little in the start
    Ab-------|
    Db-0-----|
    Chords…
  • Intro- F5, G#5,F5, E5, F5, E5
           
           E5, F5, E5 -x4
    
           E5, F5
    
    E5                    F5
    Obscured by the sun
    E5                   F5
    Apocalyptic clash
    E5                    F5
    Cities fall in ruin
    E5…
  • 5-string bass tuned down 1/2 step
    
    INTRO:
    
    G|---------------------------------------------------|
    D|---------------------------------------------------|
    A|---------------------------------------------------|
    E|---------------------------------------------------|
    B|--0--0--0--0--0--0--0--0--0--0--0--0--0h1--1--1h2--|
    
    
    CHORUS:
    
    A|--------------------------------|
    E|--------------------------------|
    B|--0--0--0---0--0--0---0h1--1h2--|
    
    
    VERSE:
    
    A|--------------------------------------|
    E|--------------------------------------|
    B|--0--0--0--0--0--0--0--0--0--0--0--0--|
    
    A|---------------------------------|
    E|--7--7--7--7--7--7h8--8--8h9--9--|
    B|---------------------------------|
    
    
    BRIDGE:
    
    A|-----------|…
  • *RIFF A*
    
      The first time guitar 1 plays  
      the main riff alone.
    
    e:||------------------------------------||		|
    B:||------------------------------------||		|
    G:||--6/8--8--6--8--8--6--8--8-----11-11||		|--	Guitar…
  • Tab legend:
    ----------
    h   - hammer-on
    p   - pull-off
    / \ - slide up
          slide down
    ~   - vibrato
    
    
    guitar 1
    let this ring out
    intro is the acoustic(play these 2 lines 2x and then play the second
    E -------2------------3-----------2-----------3---------------|
    B…
  • INTRO
    =====
    e|------------------------------|
    B|------------------------------|
    G|------------------------------|
    D|------------------------------|
    A|--00-0-0-00---00-0-0-00-------|
    D|--00-0-0-00---00-0-0-00-------|
    
    VERSES
    ======
    e|--------------------------------------------------|
    B|--------------------------------------------------|
    G|--------------------------------------------------|
    D|--------4-5---------4-5---------4-5---------4-1---|
    A|-0-0-00-4-5--0-0-00-4-5--0-0-00-4-5--0-0-00-4-1---|
    D|-0-0-00-4-5--0-0-00-4-5--0-0-00-4-5--0-0-00-4-1---|
    
    BREAK…
  • RIFF 1
    -----------------------------------------|
    -----------------------------------------|
    -----------------------------------------|
    -----------------------------------------|
    |-0-0---0-0---0-0---0-0-----0-0---0-0---0-0---0-0-0--|
    |-0-0---0-0---0-0---0-0-----0-0---0-0---0-0---0-0-0--|
    
    RIFF…
  • E||------|----------------------|--------------------------|
    B||------|----------------------|--------------------------|
    G||------|----------------------|--------------------------|
    D||------|----------------------|--------------------------|
    A||------|----------------------|--1-----------------------|
    E||------|--------------0-0-0-0-|-------0-0-0--2--0--2--0--|
    
    
    
    ----------------------------|--------------------------|
    ----------------------------|--------------------------|
    ----------------------------|--------------------------|
    ----------------------------|--------------------------|
    --1-------------------------|--1-----------------------|
    -------0-0-0-0-0----0-0-0-0-|-------0-0-0--2--0--2--0--|
    
    
    
    --------------------------||------------------------|
    --------------------------||------------------------|
    --------------------------||*-----------------------|
    --------------------------||*-----------------------|
    --1-----------------1--0--||---1--------------------|
    -------0-0-0-0-0----------||------------0--0--0--0--|…
  • Timing 6/8
    
     INTRO (acoustic guitar w/fingerpicks)
    |-----------0--------|-----------0--------|-----------0--------|
    |--------0-----0-----|--------0-----0-----|--------0-----0-----|
    |-----0-----------0--|-----0-----------0--|-----0-----------0--|
    |--------------------|--------------------|--------------------|
    |--------------------|--------------------|--------------------|
    |--0-----------------|--0-----------------|--0-----------------|
    
    |-----------0-----7--|--7--------7p0-------|--------7--8--7h87\5-|--7--5/2------|
    |--------0-----0-----|-----0-----0---0-----|--0-----0--0---------|--0--------5--|
    |-----0--------------|--------0---------0--|-----0---------------|--------------|
    |--------------------|---------------------|---------------------|--------------|
    |--------------------|---------------------|---------------------|--------------|
    |--0-----------------|--0------------------|--0------------------|--------------|
    
    |-----------2p0-------|-----------0--0--0--|--0----------3p0-----0--|
    |--5-----5------5-----|--------5-----5--5--|--5------5-------5---5--|
    |-----5------------5--|-----5--------5--5--|--5----5---5-------5-5--|
    |---------------------|--------------------|------------------------|
    |--0------------------|--0-----------0--2--|--3--3---------------3--|
    |---------------------|--------------------|------------------------|…
  • 'Drop D' tuning : 
         1:e
         2:b
         3:g
         4:d
         5:a
         6:d
    
    
    n.h.                                                                            
    -----------12---------10--------7--------5--------|-----------------------------
    -12------------11---------9--------9--------9-----|-----------------------------
    -12----------------9---------7--------7--------7--|-----------------------------
    -12-------------------0------------------0--------|-----------------------------
    -12-----------------------------------------------|-----------------------------
    -12-----0-----------------------0-----------------|-----------------------------…
  • .  - palm mute           /  - slide up to
    \  - slide down to       ~  - vibrato
    h  - hammer on           b  - Bend
    p  - pull off            Suffixes for bend
    t  - tap                 f  - full bend    h - half bend
    ph…
  • e|-------------|
    B|-------------|
    G|-------------|
    D|-------5b~~--|
    A|-------------|
    E|--000--------|
    
    e|-----------------|
    B|-----------------|
    G|-----------------|
    D|-----------------|
    A|-----------------|
    E|--3332-3332-332--|
    
    e|-------------------|
    B|-------------------|
    G|-------------------|
    D|--6-----6-----6----|
    A|--4--2--4--2--4-2--|
    E|-----0-----0----0--|…
  • Tuning: Bb Eb Ab Db F Bb
    
    Q=109
    
    4/4
    
         PM  PM  PM|       PM  PM  PM|       PM----------------------------|
        E E E E E E E E   E E E E E E E E   E E E E E E E E   E E E E E E E E  4x
    ||------------------|-----------------|-----------------|------------------||
    ||o-----------------|-----------------|-----------------|-----------------o||
    ||------------------|-----------------|-----------------|------------------||
    ||------------------|-----------------|-----------------|------------------||
    ||o-8---8---8-----8-|-8---8---8-----8s|=5-5-5-5-5-5-5-5-|-5-5-5-5-5-5-5-5-o||
    ||--9-0-9-0-9-0-0-0-|-9-0-9-0-9-0-0-9s|=6-6-6-6-6-6-6-6-|-6-6-6-6-6-6-6-6--||…
  • ..  - palm mute          /  - slide up to
       - slide down to      ~  - vibrato
     h  - hammer on          b  - bend
     p  - pull off            Suffixes for bend
                              ph - pinch harmonic…
  • Legend
        ------
        h     - Hammer-on
        p     - Pull-off
        ~     - Vibrato
        /     - Slide up
             - Slide down
        Repeat previous bar
       %    - Repeat previous two bars
     Not Sure - Riff may not be accurate…
  • Intro
    G|----------------|----------------|
    D|----------------|----------------|
    A|----------------|----------------| 
    E|----------------|----------------| x2
    
    G|----------------|----------------|
    D|----------------|----------------|
    A|----------------|----------------|…
  • Tuning (Bb Eb Ab Db F Bb)
    
    3/4
    
        PM----|       PM----|
        e e e e E E   e e e e E E  8x
    ||--------------|--------------||
    ||o-------------|-------------o||
    ||--------------|--------------||
    ||----------6---|---------5----||
    ||o-----8-7---7-|-----8-7-----o||
    ||--0-7---------|-0-7-------6--||…
  • intro
    
    E---------------------------------------|
    B---------------------------------------|
    G---------------------------------------|
    D---------------------------------------|
    A--5b(6)r5---5b(6)r5---5b(6)r5--5b(6)r5-|
    D-0--------0---------0---------0--------|
    
    E------------------------------------|
    B------------------------------------|
    G------------------------------------|
    D-4-4b5r4--4-4b5r4--4-4b5r4--4-4b5r4-|
    A-4-4b5r4--4-4b5r4--4-4b5r4--4-4b5r4-|
    D-4-4b5r4--4-4b5r4--4-4b5r4--4-4-----|b5r4…
  • Legend
        ------
        h     - Hammer-on
        p     - Pull-off
        ~     - Vibrato
        /     - Slide up
             - Slide down
        Repeat previous bar
       %    - Repeat previous two bars
     Not Sure - Riff may not be accurate
    
    
    *…
  • riff1
    A------------------------------------------8/7--5/7----
    E----0--0-0-0---0---0-0-0--0---0-0-0----------------
    Riff 2
    A------------------------------------8/7---5/7--------
    E--0-0-0-0-0-0-0-0-0-0-0-0-0-0--------------------
    main…
  • Tuning: Drop D 4 flat.
    
    Intro:-
    
    e}--------------------------------------------------|
    b}-7-----7-----7-----7-----6-----6-----6-----6------|
    g}---777---777---777---777---777---777---777---777--|
    D}--------------------------------------------------|
    A}--------------------------------------------------|
    D}--------------------------------------------------|
    
    
    "Where…
  • Tuning (Bb Eb Ab Db F Bb)
    
    Q=178
    4/4
    
      \1____________/
      W            +H.      +Q
    |------------|--------------|
    |------------|--------------|
    |------------|--------------|
    |------------|--------------|
    |------------|--------------|
    |-0----------|-(0)------(0)-|…
  • Tuning E A D G B E
    
     Feedback and electronic noises
    
     [------------------------------PM-------------------------------]
    |-----------------------------------------------------------------|
    |-----------------------------------------------------------------|
    |-----------------------------------------------------------------|
    |-----------------------------------------------------------------|
    |-----------------------------------------------------------------|
    |-2-0-2-0-2-0-2-0-2-0-2-0-2-0-2-0-2-0-2-0-2-0-2-0-2-0-2-0-2-0-2-0-|…
  • RIFF A/INTRO
    ------------------------------------------------------------
    ------------------------------------------------------------
    ------------------------------------------------------------
    ------------------------------------------------------------
    --222-2222-222-2222-222-2222-222-2222-222-2222--------------
    --000-0000-000-0000-000-0000-000-0000-000-0000--------------
    
    Beat…
  • Legend
        ------
        h     - Hammer-on
        p     - Pull-off
        ~     - Vibrato
        /     - Slide up
             - Slide down
        Repeat previous bar
       %    - Repeat previous two bars
     Not Sure - Riff may not be accurate…
  • Legend
        ------
        h     - Hammer-on
        p     - Pull-off
        ~     - Vibrato
        /     - Slide up
             - Slide down
        Repeat previous bar
       %    - Repeat previous two bars
     Not Sure - Riff may not be accurate…
  • E----------------------------------|
    B----------------------------------|
    G----------------------------------|
    D-5-5-5-4-2-2-2-4-2-2-2-4-5-5-5-5--|
    A-3-3-3-4-2-2-2-4-2-2-2-4-5-5-5-5--|
    D-3-3-3-2-0-0-0-2-0-0-0-2-3-3-3-3--|
    
    E----------------------------------|
    B----------------------------------|
    G----------------------------------|
    D-5-5-5-4-2-2-2-4-2-2-2-4-5-5-5-5--|
    A-3-3-3-4-2-2-2-4-2-2-2-4-3-3-3-3--|
    D-3-3-3-2-0-0-0-2-0-0-0-2-3-3-3-3--|
    
    
    E----------------------------------|
    B----------------------------------|
    G----------------------------------|
    D-5-5-5--2-2-2--5-5-5--4--5-5-5-5--|
    A-3-3-3--2-2-2--3-3-3--4--3-3-3-3--|
    D-3-3-3--0-0-0--3-3-3--2--3-3-3-3--|…
  • This is the whole song within the solo.
    Legend:
      ^ - Bend
     / - Slide up - down
      p - pull off
      h - hammer on
      * - Natural harmonic
     pm - palm mute
     ~  - Vibration
    Tuning E
    
    Riff 1
    |-------------------------|
    |-------------------------|
    |-------------------------|
    |-------3-3---------------|
    |--5-5--1-1--3-3-3--3-3-3-|
    |--3-3-------1-1-1--1-1-1-|
    
    Corus…
  • Legend
        ------
        h     - Hammer-on
        p     - Pull-off
        ~     - Vibrato
        /     - Slide up
             - Slide down
        Repeat previous bar
       %    - Repeat previous two bars
     Not Sure - Riff may not be accurate…
  • tune down to C ( plus dropped ) -> A# F ...
    
    Part A
    -----------------------------------
    -----------------------------------
    -----------------------------------
    -----------------------------------
    -5---4-4-4-4---7---8---7---4--4-4--
    -5-p-4-4-4-4-/-7-h-8-p-7-/-4--4-4--
    
    Part…
  • 5-string bass tuned down 1/2 step
    
    INTRO:(gtr)
    
    
    G|----------------------------------------------------|
    D|----------------------------------------------------|
    A|----------------------------------------------------|
    E|----------------------------------------------------|
    B|-1--1--1--1--1--1--1--1--1--1--1--1--1--7--7--7--7--|
    
    G|-------------------------------------|
    D|-------------------------------------|
    A|-------------------------------------|
    E|-------------------------------------|
    B|-1--1--1--1--1--1--1--1--1--1--1--0--|
    
    The…
  • Tune down about 2 steps (C,F,Bb,Eb,G,C)
    
                  Heavy riff
    1||---------||-----------------|-----------------||-----------------||
    2||---------||-----------------|-----------------||-----------------||
    3||---------||-----------------|-----------------||-----------------||
    4||---------||-----43-------3-|-----43---------||-----------------||
    5||-5---3---||-----21---3---1-|-----21---3-3---||-2---2---2---2---||
    6||-3---1---||-0-0-----0-1-0---|-0-0-----0-1-1---||-0---0---0---0---||…
  • TUNING:Eb,Ab,Db,Gb,Bb,Eb,
    
    INTRO
    |--------------------------------------------||
    |--------------------------------------------||
    |--------------------------------------------||
    |--------------------------------------------||
    |------------------------------------------6-||
    |-12/-0--0-0-0--1-1-1-1-1-1-2-2-2-2-2-2-0--4-||
    
    |------------------------------------------||
    |------------------------------------------||
    |------------------------------------------||
    |------------------------------------------||
    |----------------------------------------6-||
    |-0-0-0-0-0-0-1-1-1-1-1-1-2-2-2-2-2-2-0--4-||
    
    |-------------------------||
    |-------------------------||
    |-------------------------||
    |-------------------------||
    |-2-2--2-2-2--2-2-2--2--6-||
    |-0-0--0-0-0--0-0-0--0--4-||
    
    CHORUS…
  • The tuning is  (EADGBE) 
    
    Intro (126bpm)
    Guitar 1
    |------------0-----------------------0------------------------0-----------------------------|
    |------------------0---------------------------0------------------------0-------------------|
    |----3b------------------3b-----------------------------3b-------------------3b-------------|
    |-------------------------------------------------------------------------------------------|
    |-------------------------------------------------------------------------------------------|
    |-------------------------------------------------------------------------------------------|
    
    Guitar…
  • Detune your guitar of nearly 3-4 steps
    
    Intro
    -----------------------
    -----------------------
    -----------------------
    -----------------------
    -----------------------
    --00-10sl-4-00-12sl-6
    
    Verse
    --------------------------
    --------------------------
    ----4-----3----(later)-4-3
    ---5-----4----------------
    --4-----3-----------------
    
    Chorus
    ------------------
    ------------------
    ------------------
    ------------------
    55---55-55---55-33
    33-0-33-33-0-33-11
    
    Break…
  • 4-string bass tuned down 1/2 step
    
    
    INTRO:
    
    G|--------------------------------------
    D|--------------------------------------  
    A|--------------------------------------
    E|--0--0--0--0--0--0--0--0--0--0--0--0--.... (Just…
  • Intro (and played through parts of the song)         Main riff
    E|-------------------------|-------------------------||-------------------------
    B|-------------------------|-------------------------||-------------------------
    G|-------------------------|-------------------------||-------------------------
    D|-------------------------|-------------------------||-------------------------
    A|---------8-----------8---|-----------------4---3---||-------------------------
    E|-0-0-0-0-6---0-0-0-0-6---|-0-0-0-0-0-0-0-0-2---1---||-0-0-0-0-6p4p0-0-0-0-0-6p…
  • Tuning (D G C F A D)
    
    Q=80
    2/4
    
    
         E E E E   E E E E   E  E  E  E    E  E  E  E    E  E E  E
    ||-----------|---------|------------|-------------|-------------||
    ||o----------|---------|------------|-------------|------------o||
    ||-----------|---------|------------|-------------|-------------||
    ||--/8-8-8-8-|-8-8-8-8-|-8--8--8-11-|-11-11-11-12-|-10-11-9-10--||
    ||o-/6-7-7-9-|-9-6-6-7-|-9-10-10-12-|-12--9--9-10-|--8--9-7--8-o||
    ||---0-------|---------|------------|-------------|-------------||…
  • Intro 
    
    ------------------------------------------------------------
    ------------------------------------------------------------
    ------------------------------------------------------------
    ------------------------------------------------------------
    --7-12-6-6-6-6----------------------------------------------
    --5-10-4-4-4-4----------------------------------------------
    
    
    
    Verses
    ------------------------------------------------------
    ------------------------------------------------------
    ------------------------------------------------------
    ------------------------------------------------------
    777/11/12---777/11/12---777/11/12---777/11/12---------
    555/9…
  • Legend
        ------
        h     - Hammer-on
        p     - Pull-off
        ~     - Vibrato
        /     - Slide up
             - Slide down
        Repeat previous bar
       %    - Repeat previous two bars
     Not Sure - Riff may not be accurate…
  • Tune down 2 and a half steps.
    
    INTRO                            FILL
    -----------------------------    ------------------
    -----------------------------    ------------------
    -777-666-555-444-------------    -3--5--7-/--------
    -777-666-555-444-------------…
  • tuned 4 halftones down
    
    C |--------------------------------|
    G |--------------------------------|
    Eb|--------------------------------|
    B |--------------------------------|
    F |--------------------------------|
    C |0--0-0--5-6-----0--0-0--5-6-5-6-|…
  • Bass tab 
    
    Intro
    G
    D
    A
    D  4  3  1  3  4  3  1  3  0
    
    G
    D
    A
    D  0  2  0  3  0  4  0  6
    
    G
    D
    A
    D  0  2  0  3  0  2  0  3  0  2  0  3  7 7 6 6
    
    Verse
    G
    D
    A
    D  0  2  0  3
    
    
    
    
    
  • Legend
    ------
    
     h  = hammer-on
     p  = pull-off
     b  = bend
     r  = bend release
     /  = slide up/down
     = natural harmonic
    [5] = artifical harmonic
     ~  = vibrato
     tr = trill
    
    
    E|----||--------------------------------|----------------------------|---------
    B|----||--------------------------------|----------------------------|---------
    G|----||--------------------------------|----------------------------|---------
    D|----||--------------------------------|----------------------------|---------
    A|-3--||-----------------7--------------|-8----------------------8---|---------
    E|-1--||-0-0-0-0-0-0-0-0----0-0-0-0-0-0-|----0-0-0-0-0-0-0-0-0-0-6---|-0-0-0-0-…
  • Acoustic Guitar
    
    4/4
    Let all notes ring throughout.                    G6
    e:------------0-----------------------0----------|--------------------0-------|
    B:---------0-----0-----------------0-----0-------|--------0--------------0----|
    G:------5-----------5-----------5-----------5----|-----4-----4----------------|
    D:---7-----------------7-----7-------------------|--5-----------------------5-|
    A:0-----------------------0----------------------|----------------------------|
    E:-----------------------------------------------|----------------------------|…
  • Legend
        ------
        h     - Hammer-on
        p     - Pull-off
        ~     - Vibrato
        /     - Slide up
             - Slide down
        Repeat previous bar
       %    - Repeat previous two bars
     Not Sure - Riff may not be accurate…
  • Moderately fast = 160
    -----0---------|----------0--------------|
    -------0--------0-----|---------0--------|
    |--T-----------8-----8-----|--------8-----8---|-------3---3------|
    |--A--------10---------10--|-----10-----------|-----5-------5----|
    |--B------9----------------|---9--------------|---4-----------4--|
    |-------7------------------|-7----------------|-2----------------|
    
    ----0-----------------|---------0--------|
    ------0--------|---------0--------0------|
    --3-----3------|-------3---3------|-------3-----3----|
    5---------5----|-----5-------5----|-----5--------0---|
    |---------4----------------|---4-----------4--|---4--------------|
    |-------2------------------|-2----------------|-2----------------|
    
    -----0----------0-----0------|
    -------0-------|----------0-------|---------0--------|
    ---8-----8-----|--------8-----8---|-------8-----8----|
    10---------10--|-----10---------10|-----10---------10|
    |---------9----------------|---9--------------|---9--------------|
    |-------7------------------|-7----------------|-7----------------|
    
    -----0----------------|---------0--------|
    -------0-------|---------0--------0------|
    ---8-----8p0---|-------3---3------|-------3-----3----|
    10-------------|-----5-------5----|-----5---------5--|
    |---------9----------------|---4-----------4--|---4--------------|
    |-------7--------------0---|-2----------------|-2----------------|
    
    -------|---------0------------|
    |---------0--------0----------|
    |-------3---3------|-------3-----3--------|
    |-----5-------5----|-----5---------5------|
    |---4-----------4--|---4--------------|--4------------|
    |-2----------------|-2--------------------|
    
    ---|--------0-----0----|
    -2-|-3-2------3-2-|-0-2-0-----2--2-|
    |-----3--3-4---|-----4--------|--------3----|-----3--3-4---|
    |---5-------------|-3------4----|---5----------|
    |-4------1-----|-2------4-------|-4------1-----|
    |-2-----------------|-2------------|
    
    |-------0------|-2-0----0-----------|
    |-3-2-----3-2--|-----3----3-2-|-3-2----2-0---|-0----------0-|
    |----4------------|-----4------0-|---0-3----3---|
    ---|-0---------------|--------4-----|
    |-2-----4------|--------4-----|-2------1--------|
    ---------|-3------2-----|
    
    |--------2----------------|
    |-2--------------7-|-10-8-7----12-10--|
    |---3----------|------8--8-9---------|----12-11-9-|
    |-----4--------|---10-----------------|
    ---|-9-------6-----|-7-------9-------|-10---------|
    |-2------------|-7--------------------|
    
    Slower…
  • Tuning C#?
    
    e|------------------------------|
    B|------------------------------|
    G|------------------------------|
    D|------------------------------|
    A|------------------------------|
    E|--6^0-6^0-6^0-6^0-6^0-6^0-6~--|
    
    e|----------------|
    B|----------------|
    G|----------------|
    D|-------------2--|
    A|----------------|
    E|--0--1-4--1-----|
    
    e|-----------------|
    B|-----------------|
    G|-----------------|
    D|-----------------|
    A|-----------------|
    E|--0--3-1--3-1-4--|
    
    e|---------------------|
    B|---------------------|
    G|---------------------|
    D|---------------------|
    A|--2--3--6-6-6-6-...--|
    E|--0--1--4-4-4-4-...--|
    
    e|-----------------|
    B|-----------------|
    G|-----------------|
    D|-----------------|
    A|--2--3-6--3-6-5--|
    E|--0--1-4--1-4-3--|…
  • Tuned down 1/2 step.
    
    Intro:
    ||---------------|--------------------||-------------------|-----||
    ||---------------|--------------------||-------------------|--%--||
    ||---------------|--------------------||-------------------|-----||
    ||--0---0---0----|----0---0---0---1---||--1-1-1-1-1-1-1-1--|-----||
    
    ||----------------|----------------|----------------|--------------|
    ||----------------|----------------|----------------|--------------|
    ||-2--------------|-2--------------|-2--------------|-2-2-2--3-3-3-|
    ||----1-1-1-1-1-1-|----1-1-1-1-1-1-|----1-1-1-1-1-1-|--------------|
    
    |-----||----------------|----------------|----------------|
    |--%--||----------------|----------------|----------------|
    |-----||-7--------------|-7--------------|-7--------------|
    |-----||----1-1-1-1xxxx-|----1-1-1-1xxxx-|----1-1-1-1xxxx-|
    
    |--------------|-----||-----|--------|-----|--------||
    |-2-2-2--3-3-3-|--%--||-----|--------|-----|--------||
    |--------------|-----||-----|--2-----|-----|--2-----||
    |--------------|-----||--1--|-----1--|--1--|-----1--||
    
    verse…
  • Legend
    ------
    
     h  = hammer-on
     p  = pull-off
     b  = bend
     r  = bend release
     /  = slide up/down
     = natural harmonic
    [5] = artifical harmonic
     ~  = vibrato
     tr = trill
    
    
      Intro Riffs
    E|----------------------|------------------------||----------------------------
    B|----------------------|------------------------||----------------------------
    G|----------------------|------------------------||----------------------------
    D|-9---9--11--12--8-----|------------------------||----------------------------
    A|-7---7---9--10--6--9--|-8----3--3--3--6--6--6--||------3--------4--------5---
    E|-------------------7--|-6----1--1--1--4--4--4--||-0-0--1---0-0--2---0-0--3---
    
    
    
    
    
    E-||------------------|--------------------||----------------|-----------------
    B-||------------------|--------------------||----------------|-----------------
    G-||------------------|--------------------||----------------|-----------------
    D-||-9---9--10---12---|-13---13--10---13---||-2---2--3---5---|-3-3-----3-3-----
    A-||-7---7---8---10---|-11---11---8---11---||-2---2--3---5---|-3-3-----3-3-----
    E-||------------------|--------------------||----------------|-----1-1-----1-1-…
  • intro
    A----7--7-7---9---10---9-----7--7-7---9---10---9---10-9---10-9----
    E-------------------------------------------------------------------------
     riff 1
    A-------------------------------
    E----0-----0--0---1--3---1-----4----4----
    riff…
  • e|-----------------|
    B|-----------------|
    G|-----------------|
    D|--------  A.H. --|
    A|--2--3--4444...--|
    E|--0--1-----------|
    
    e|------------------|
    B|------------------|
    G|------------------|
    D|-----------4---4--|
    A|--2--3--2--2-2-2--|
    E|--0--1--0----0----|…
  • intro
    |------------------------------|
    |------------------------------|
    |------------------------------|
    |------------------------------|
    |-6----------------------------|
    |-4-----1-1-1--1-1-1-1--1-1-1--|
              . . .…
  • Legend
    ------
    
     h  = hammer-on
     p  = pull-off
     b  = bend
     r  = bend release
     /  = slide up/down
     = natural harmonic
    [5] = artifical harmonic
     ~  = vibrato
     tr = trill
    
    
         Guitar 1 intro
    E---|-----------------|-------|-----------------------|------------|------------
    B---|-----------------|-------|-----------------------|------------|------------
    G---|-9----9-9-9--10--|-9-----|-10----10-10-10--10-10-|-10---------|-9----9-9-9-
    D-x|-9----9-9-9--10--|-9-----|-10----10-10-10--10-10-|-10---------|-9----9-9-9-
    A-x|-7----7-7-7---8--|-7-----|--8-----8--8--8---8--8-|--8----/x--|-7----7-7-7-
    E-x|-----------------|-------|-----------------------|------------|------------…
  • 250 bpm (thats like crazzy speed right there)
    |-----------------|-----------------|-----------------|-----------------||
    |-----------------|-----------------|-----------------|-----------------||
    |-----------------|-----------------|-----------------|-----------------||
    |-----------------|-----------------|-9---------------|(9)--------------||
    |-----------------|-----------------|-7---------------|(7)--------------||
    |-5-0-0-5-0-0-5-0-|-5-0-0-5-0-0-5-0-|-0---------------|(0)--------------||
    
    |-----------------|-----------------|-----------------|-----------------|
    |-----------------|-----------------|-----------------|-----------------|
    |-----------------|-----------------|-----------------|-----------------|
    |-----------------|-----------------|-----------------|-----------------|
    |-7-----7-----7---|-6---------------|-7-----7-----7-9-|-6---------------|
    |---0-0---0-0---9-|---0-000-0-0-000-|---0-0---0-0-----|---0-000-0-0-000-|…
  • Intro (Guitar 1)
    |--11111111-1-1-1-1-11111111-1-1-1-1-11111111-1-1-1-1-11111111-1-1-1-1----|
    |--33333333-3-3-3-3-33333333-3-3-3-3-33333333-3-3-3-3-33333333-3-3-3-3----|
    |-------------------------------------------------------------------------|
    |-------------------------------------------------------------------------|
    |-------------------------------------------------------------------------|
    |-------------------------------------------------------------------------|
    PM.........…
  • Two, three, four
    
     A5     H7      F5 G5 A5
    Mongoloid he was a mongoloid
    Happier than you and me
    Mongoloid he was a mongoloid
    And it determined what he could see
    
    	And he wore a hat
    	And he had a job
    	And he brought home…
  • e|---------------------------------------------------------|
    B|---------------------------------------------------------|
    G|---------------------------------------------------------|
    D|-9--9-9-9-x--9--9-9-9-x--9--9-9-9-x--9--9-9-9-x----------|
    A|-7--7-7-7-7--7--7-7-7-7--7--7-7-7-7--7--7-7-7-7----------|
    E|-0--0-0-0-0--0--0-0-0-0--0--0-0-0-0--0--0-0-0-0----------|
    
    e|---------------------------------------------------------|
    B|---------------------------------------------------------|
    G|---------------------------------------------------------|
    D|---------------------------------------------------------|
    A|-7-7--7-7--7-7--7-7--7-7--7-7--7-7--7-7--7-7--7-7--7-7---|
    E|-5-5--5-5--5-5--5-5--5-5--5-5--5-5--5-5--5-5--5-5--5-5---|
    
    e|-------------------------|-------------------------------|
    B|-------------------------|-------------------------------|
    G|-------------------------|-------------------------------|
    D|-------------------------|-9--9-9-9-x--9--9-9-9-x--------|
    A|-7-7--7-7--7-7--7-7--7-7-|-7--7-7-7-7--7--7-7-7-7--------|
    E|-5-5--5-5--5-5--5-5--5-5-|-0--0-0-0-0--0--0-0-0-0--------|…
  • Legend
        ------
        h     - Hammer-on
        p     - Pull-off
        ~     - Vibrato
        /     - Slide up
             - Slide down
        Repeat previous bar
       %    - Repeat previous two bars
     Not Sure - Riff may not be accurate…
  • play 3 times -----------------------|
    |-----------------|-----------------||-----------------|-------------|
    |-----------------|-----------------||-----------------|-------------|
    |-----------------|-----------------||-----------------|-------------|
    |-----------------|-----------------||-----------------|-------------|
    |-4-3---3---3-4-3-|---3---3-3-2-3-2-||-4-3---3---3-4-3-|---3---2-4-2-|
    |-2-1---1---1-2-1-|---1---0-1-0-1-0-||-2-1---1---1-2-1-|---1---0-1-0-|…
  • Tune down 2 steps (C,F,Bb,Eb,G,C) for Antichrist
            Half step (Eb,Ab,Db,Gb,Bb,Eb) for Anticop
    
    
       Intro, verse and solo
    1||------------------|-----------------|------------------|-----------------||
    2||------------------|-----------------|------------------|-----------------||
    3||------------------|-----------------|------------------|-----------------||
    4||------------------|-----------------|------------------|---------3--3--3-||
    5||------------------|---------3--3--3-|------------------|---------1--1--1-||
    6||-0000000000000000-|-000000001--1--1-|-0000000000000000-|-00000000--------||…
  • Legend
    ------
    
     h  = hammer-on
     p  = pull-off
     b  = bend
     r  = bend release
     /  = slide up/down
     = natural harmonic
    [5] = artifical harmonic
     ~  = vibrato
     tr = trill
    
    
      Intro
    E|---------|-----------||-------------------------|-------------------------|---
    B|---------|-----------||-------------------------|-------------------------|---
    G|---------|-----------||-------------------------|-------------------------|---
    D|---------|-5---------||-------------------------|-6-5--------------------|-4
    A|-2---6---|-3---5--6--||-------------------------|-4-3--------------------|-2
    E|-0---4---|-----3--4--||-0--0--0--0--0--0--0--0--|-------0--0--0--0--0--0--|---
    
    
    
    
    
    E|-----------------------|-------------------------||-------------------------|-
    B|-----------------------|-------------------------||-------------------------|-
    G|-----------------------|-------------------------||-------------------------|-
    D|--3--------------------|-------------------------||-------------------------|-
    A|--1--------------------|-4-3--------------------||-6-5--------------------|-
    E|-----0--0--0--0--0--0--|-2-1--0--0--0--0--0--0--||-4-3--0--0--0--0--0--0--|-
    
    
    
    
    
    E|-------------------------|-------------------------|-------------------------
    B|-------------------------|-------------------------|-------------------------
    G|-------------------------|-------------------------|-------------------------
    D|-6-5--------------------|-4-3--------------------|-------------------------
    A|-4-3--------------------|-2-1--------------------|-4-3--------------------
    E|-------0--0--0--0--0--0--|-------0--0--0--0--0--0--|-2-1--0--0--0--0--0--0--…
  • 152 bpm
    |-----------------|-----------------|-13------13------|-13------13-----|
    |-----------------|-----------------|-17------17------|-17------17------|
    |-----------------|-----------------|-----------------|-----------------|
    |-----------------|-----------------|-----------------|-----------------|
    |-----------------|-----------------|-----------------|-----------------|
    |-0--------------|(0)-------------|-----------------|-----------------|
    |…
  • Tune down 1 step (D,G,C,F,A,D) then slighty up (It is off tune) 
    
       Intro                                               Verse
    1||-----|-----||------------------|------------------||------------------|-----------------||
    2||-----|-----||------------------|------------------||------------------|-----------------||
    3||-----|-----||------------------|------------------||------------------|-----------------||
    4||-----|-3---||------------------|------------------||------------------|-3---------------||
    5||-2---|-1---||-7777777777777777-|------------------||---------3--------|-1-------3---3---||
    6||-0---|-----||------------------|-7777777788888888-||-000000001-000000-|---0000001---1---||…
Наверх