Аккорды «Serial Joe»

Популярные аккорды Serial Joe:
алфавиту | просмотрам | случайно
  • Tuning: Standard (EADGBE)
    
    Bass comes in with drums after the 2 line guitar intro.
    
    Verses:
    
    G------------------------------|
    D------------------------------|
    A------2-------2-4-4-4---------|
    E--0-0---0-0-0---------4-4-4-4-|
    
    Chorus:
    
    G----------------------------------|
    D----------------------------------|
    A------------------4-4-4-4---------|
    E--0-0-0-0--0-0-0-0--------4-4-4-4-|
    
    Solo/Break:
    
    G--4-4-4----4-4-4-4---4-4-4-4--6-6-6-6-8-8-6-6-6-|
    D------------------------------------------------|
    A---------2---------2----------------------------|
    E------------------------------------------------|…
  • Tuning/others: standard
    
    
         Intro/verse variation
    
           G|--------------------------------------|
           D|--------------------------------------|
           A|------2--------2--*4*4----------------|
           E|---00--000-0-0--0------*4*-4-4-4------|…
  • Verse
    
    G|-------------|
    D|-------------|
    A|-------------|
    E|-0-5-5-7-7-8-|
    
    Chorus  (not sure if it right)
    
    G|-------------|
    D|-------------|
    A|-------------|
    E|-0-0-9-7-8-9-|
    
    Break (this sounds like it, but it'll give…
  • Tuning/others:standard
    
    G:--------------------------------------------
    D:--------------------------------------------
    A:--------------------------------------------
    E:---055-05-05*8*----3xthen------11-10-8------
    
    all slapped…
  • >INTRO/VERSE #1
              e-------------------------------------|
              b-------------------------------------|
              g-------------------------------------|
              d-55555555-55555555-66666666-6666-0-3-|…
  • Regular tuning if you will
    
    Just for fun I'm going to put this in. It's not in the song. But it's
    the guitar's main riff but semi fun to play on the bass.
    
    |-------0---0---0-0---------0---0---0-0---|
    |-----0-------------0-----0-------------0-|
    |-0h2-----2---2-------0h3-----3---3-------|
    |-----------------------------------------|
    
    Verse
    |---------------------------------|
    |---------------------------------|
    |-5-5-5-5-5-5-5-5-5-5-5-5-5-5-5-5-|
    |---------------------------------|
    
    Pre…
  • Intro 1:
    e|--------------------------------------------------------------------------|
    B|--------------------------------------------------------------------------|
    G|--55----99----77----55----77----99---1010---99----7-----------------------|
    D|--xx----xx----xx----xx----xx----xx----xx----xx----x-----------------------|
    A|--33----77----55----33----55----77----88----77----5-----------------------|
    E|--------------------------------------------------------------------------|
    
    e|--------------------------------------------------------------------------|
    B|--------------------------------------------------------------------------|
    G|--------------10-10-9-10-9-7----------------------------------------------|
    D|-77777777-----x--x--x-x--x-x----------------------------------------------|
    A|-77777777-----8--8--7-8--7-5----------------------------------------------|
    E|-55555555-----------------------------------------------------------------|
    Intro…
  • This is in standard tunning
              x=left hand mutting
              
              
              >INTRO/CHORUS
              e---------------------------------------------------------|
              b---------------------------------------------------------|…
  • Verse
    G|-----|
    D|-----|
    A|-----|
    E|-5-5-|
    
    Chorus
    G|-----------------|
    D|-----------------|
    A|-5-7-5-7-5-7-4-6-|
    E|-----------------|
    
    Breaky thing
    
    G|-------------------------|
    D|-------------------------|
    A|-3-3-3-3-----------------|
    E|---------3-3-3-3-5-5-5-5-|…
  • DownTuning: Drop D 
    
       P(on top of string lines)- palm mute 
       ^- bend 
       h- hammer on 
       p- pull off 
    
    
       Riff#1 
    
       (P) (P) 
       e------------------------------------- 
       B-------------------------------------…
  • Guitar - 1 with distortion 
    E--------------------------------------  
    A--------------------------------------   
    D--------------------------------------
    G--2222222222222222--77777777--66666666
    B--2222222222222222--77777777--66666666
    E--0000000000000000--55555555--44444444
    
    Guitar…
  • Regular tuning if you please.
    
    Verse
    |-----------------|---------------|
    |-----------------|---------------|
    |-----5-3-----5-3-|---------------|
    |-3-3-----3-3-----|-3-3-5-3-3-3-5-|
    
    Thingy
    |-----------------|
    |-----------------|
    |-----------------|
    |-8-8-8-8-9-9-9-9-|
    
    Chorus…
Наверх