Аккорды «Sevendust»

Sevendust
В начале 90-х годов Винс Хорсби (бас) и Морган Роуз составляли ритм-секцию в группе "Snake Nation". То ли их не устраивал стиль, в котором они играли, то ли хотелось большей самостоятельности, но так или иначе парни решили замутить свой собственный проект. От первоначального названия "Rumblefish" быстренько отказались в пользу "Crawlspace". Затем ребята занялись комплектацией состава. К сотрудничеству были призваны вокалист Лайон Витерспун, гитарист Ли Бэнкс и еще один… Читать полностью... В начале 90-х годов Винс Хорсби (бас) и Морган Роуз составляли ритм-секцию в группе "Snake Nation". То ли их не устраивал стиль, в котором они играли, то ли хотелось большей самостоятельности, но так или иначе парни решили замутить свой собственный проект. От первоначального названия "Rumblefish" быстренько отказались в пользу "Crawlspace". Затем ребята занялись комплектацией состава. К сотрудничеству были призваны вокалист Лайон Витерспун, гитарист Ли Бэнкс и еще один гитарист, Джон Конноли (до этого управлявшийся с барабанами в "Peacedog"). Бэнксу, правда, не довелось долго поиграть в команде, и его место занял Клинт Лоури из "Still Rain". Летом 1996-го "Crawlspace" получили контракт от "TVT Records" и потом записали трек "My Ruin" для компиляции "Mortal Kombat – More Kombat". Вслед за этим решено было снова поменять вывеску. По предложению Винни остановились на "Sevendust", изменив одну букву в названии пестицида, которым опрыскивали томаты ("Sevindust"). Под этим флагом в 1997 году на TVT был выпущен дебютный альбом. Мода на ню-металл как раз была в самом разгаре, поэтому диск быстро поднялся в Штатах до "золотой" отметки и даже попал на верхние строчки металлических чартов. Группа совершила небольшое турне, после чего с продюсером Тоби Райтом взялась за подготовку второго альбома. Из "гостей" к сотрудничеству были приглашены Чино Морено ("Deftones") и Скин ("Skunk Anansie"). "Home" вышел в 1999-м, в том же году, когда "Sevendust" усердно гастролировали, отыграв более 800 концертов и появившись на фестивале в Вудстоке. 2000-й год команда провела в основном в дороге, играя вместе с такими коллективами как "Creed", "Drowning Pool", "Godsmack", "Disturbed", "Staind". К концу 2001-го на прилавках магазинов появился третий лонгплей, "Animosity" (и здесь не обошлось без "гостя" – им стал Аарон Льюис из "Staind"). Перед этим в свет вышел сингл "Angel's Son", посвященный бывшему участнику "Snot" Линну Стрэйту. Эта песня была подхвачена многими радиостанциями, что обеспечило продвижение "Animosity" на 28-ю строчку биллбордовских чартов. Для "Sevendust" это был первый настоящий успех. По горячим следам на две композиции из этого альбома ("Angel's Son" и "Live Again") были сняты клипы, получившие прописку на телевидении. В 2002-м группа вновь активно гастролировала, в том числе в рамках тура "Locobazooka" и на разогреве у "Creed". Кроме этого была записана новая композиция "Break The Walls Down", вошедшая на сборник "WWF Forceable Entry" от "Columbia Records". На следующий год состоялось первое глобальное американское турне, на котором "Sevendust" выступили в качестве хедлайнеров (при поддержке "Element Eighty" и "Presence"). Той же осенью вышел четвертый лонгплей, "Seasons", дебютировавший в чартах "Billboard" на 14-й позиции. Группу вновь ждал успех, т.к. уже в первую неделю продаж было раскуплено порядка 70 тысяч экземпляров этого альбома. После выхода альбома «Sevendust» дали тур в его поддержку, по окончании которого для группы настали не лучшие времена. Вот что сказано по этому поводу на официальном сайте группы: «По окончании тура мы пустились во все тяжкие. Мы расторгли контракт с нашим рекорд-лейблом, в связи с чем нам пришлось много судиться, мы уволили нашего финансового менеджера и вылезли из финансового краха, в довершение ко всему, от нас ушёл гитарист, так что нам срочно пришлось искать замену (группу покинул Клинт Лоури, на место которого был взят Сонни Мэйо). Но мы думаем, что все эти трудности пошли нам лишь на пользу. В январе мы закрылись в студии и целиком изолировали себя от остального мира, решив полностью сконцентрироваться над новым материалом. Это наш первый альбом, который мы делали целиком и полностью сами, когда нам никто не указывал, кому и как в каком месте сыграть или сменить тон. И мы считаем, что у нас получился действительно стоящий альбом. Мы не хотим вас заранее слишком уж настраивать и обнадёживать, но когда работа была завершена, мы разослали демки по многим крупным рекорд-лейблам, но мы даже не ожидали, что они, все до единого, откликнутся предложением о заключении контракта. Сейчас, когда до релиза осталось чуть больше двух месяцев, мы испытываем такое волнение, которое не испытывали никогда, ибо этот альбом, пожалуй, самая важная веха в истории «Sevendust»…» Релиз пятого альбома, получившего название «Next», состоялся в октябре и справедливо стал одним из самых громких событий альтернативной музыкальной сцены за осень 2005-го… Пластинка получилась более жёсткой, чем предыдущие творения этого коллектива. Но «Sevendust» смогли сохранить и красивую мелодичность своего звучания, что, безусловно, было очень хорошо оценено любителями альтернативной музыки. Скрыть...
Популярные аккорды Sevendust:
алфавиту | просмотрам | случайно
  • INTRO:
    
    ---0---0---0---0---0-0-0---0-0-0---0---0---0---0---0-0-0--0
    --3-3-3-3-3-3-3-3-3-3-3-3-3-3-3-3-3-3-3-3-3-3-3-3-3-3-3-3-3
    ----------------------------------------------------------0
    -2---0----------------------------------------------------0
    -------------0---1-------1---------------0-------1--------1
    ---------3-----------------------0------------------------x
    
    If…
  • TUNING: (B,F#,B,E,G#,C#)
    
    
    INTRO
    B  :-------------------------------------------------------------------------|
    F#:--------------------------------------------------------------------------|
    B  :-------------------------------------------------------------------------|
    E…
  • *Special Tuning*:
    
    B F# B E F# B
    
    ( ) - harmonics
    
    
    Intro: Fig 1.
    
    b-----------------------------------------------------------------
    f-----------------------------------------------------------------
    e-----------------------------------------------------------------
    b-----0-0---x-x-x-------x-x-x-------x-0-0---x-x-x-0-0---------2~~-
    f-----0-0---x-x-x-0-0---x-x-x-------x-0-0---x-x-x-0-0---0-3p0-----
    b-----0-0---x-x-x-0-0---x-x-x-------x-0-0---x-x-x-0-0-------------
    
    b-----------------------------------------------------------------
    f-----------------------------------------------------------------
    e-----------------------------------------------------------------
    b-----0-0---x-x-x-------x-x-x-------x-0-0---x-x-x-0-0-------------
    f-----0-0---x-x-x-0-0---x-x-x-------x-0-0---x-x-x-0-0---3h5p3h5---
    b-----0-0---x-x-x-0-0---x-x-x-------x-0-0---x-x-x-0-0-------------
    
    Verses:…
  • Riff1(gtr1)-Envelope filter 
              f-5335335---3--35335336---5335335---3--3--5336336- 
              
              f-5335335---3--35335335--- 
              
              Riff1(gtr2)-Distortion+phaser (toggle pickup switch)…
  • Drop D tuning
    Intro
    ~~~~~
     Play two times
    E---------------------------------------------------------------
    B---------------------------------------------------------------
    G---------------------------------------------------------------
    D--x--x--0----0--0-0--0-0--0-0-x--x--7----7--7-7--7-7--7-7-x--x-
    A--x--x--0----0--0-0--0-0--0-0-x--x--7----7--7-7--7-7--7-7-x--x-
    E---------------------------------------------------------------…
  • Drop D tuning
    PM     palm muting
    b      bend
    r      release
    h      hammer on
    p      pull off
    ~      vibrating
    x      muffled strings
    
    Intro  (Drums)
    Guitars come in at about 0:06  (Clean, x4)
    e[------------------------------------------------------------
    B[------------------------------5~~~~~~~----------------------
    G[--4---4-4-4-4h5p4~~~~~-4h5----------------------------------
    D[------------------------------------------------------------
    A[------------------------------------------------------------
    D[------------------------------------------------------------
    
    0:30…
  • Tuned in Drop B--- B,F#,B,E,G#,C#
                             
    
      Intro(using whammy pedal)
    
    C#|--(7x)---------------------------------------|
    G#|-13-15------8-10-------(7x)------------------|
    E |-----------------------5-7-------------------|
    B…
  • Tuning: Bb-F-Bb-Eb-G-C
    
    INTRO IS SAME AS VERSE EXCEPT THE PICKUP SWITCH IS ONE BACK, AND WAH IS CLOSED...
    ------------------------------------------------------------------
    ------------------------------------------------------------------
    ------------------------------------------------------------------
    ------------------------------------------------------------------
    -00-0-0-0-0-0-00-00-0-0-0-----333-00-0-0-0-0-0-00-00-0-0-0-----000
    -00-0-0-0-0-0-00-00-0-0-0-333-----00-0-0-0-0-0-00-00-0-0-0-333----
    
    CHORUS
    ----------------------------------------------
    ----------------------------------------------
    -555555------------------555555---------------
    -555555-777777-000000----555555-7777-8888-0000
    -333333-777777-000000----333333-7777-8888-0000
    --------777777-000000-----------7777-8888-0000
    
    POST…
  • TUNING: (B,F#,B,E,G#,C#)
    
    INTRO
    GUITAR 1 (Clean) HOLD THROUGHOUT
    B  :------2---------2------2--------------5-------------------------------
    F# :---------0---------0----------0--8-------8----------------------------
    B  :--4----------4-------------4------------------4-----------------------
    E…
  • Riff1(gtr1)-Distortion 
              B-666666666666666666666666444444444444444444444444--- 
              
              Riff1(gtr2)-Distortion 
              g-6-----7---7---------------- 
              e-7----10--10---------8--8---…
  • Tunning-(B,F#,B,E,G#,C) 
              
              ------------------------------------------------------------------------------ 
              ------------------------------------------------------------------------------…
  • The tuning is B F# B E G# C#
    
    Intro:
    
    Gtr.1
    
    C#|-------------|
    G#|-----0-----0-|
    E |---0-----0---|
    B |-------------|
    F#|-4------4----|
    B |-------------|  x8
    
    *Bass enters after x4
    
    Gtr. 2
    
    C#|------------------|
    G#|------------------|
    E…
  • Drop D tuning   {dadgbe}
    
    the song actually has two guitars, i'm just tabbing it for one.
    
    Intro. the timing is a little tricky, you'll get it though.
    
    
     sb =slight bend P = pull off
    |--------------------------------------------|
    |------------fill---------------fill---------|
    |-------------7p5----------------------------|
    |----------------8-----------------***-------|
    |-000-000-000-----0-000-000-00---------------|
    |-000-000-000-----0-000-000-00---------------|
    
    
    |--------------------------------------------------------
    |--------------------------------------------------------
    |-------------7p5----------------------------------------
    |----------------8--------------------last…
  • Tuning - down 1 1/2 steps w/Drop D tuning
    
    Riff 1
    |----------------------------------------
    |----------------------------------------
    |----------------------------------------
    |0-0-0-0-0-0-0-0-0-0-0-0-0-0-0-0---------
    |5-5-5-6-6-3-3-3-5-5-5-6-6-6-6-6---------
    |----------------------------------------
    
    Riff…
  • RIFF A:
              
                 C#|--------------------------------------------|
                 G#|--------------------------------------------|
                  E|--------------------------------------------|…
  • Tune 1 and 1/2 steps low
    (low to high:C#,F#,B,E) and play with a pick.   
    
    Pre-Verse(after guitar intro):
    |---------------|     |----------------|
    |---------------|     |----------------|
    |---------------|(x7) |----------------|
    |007-07-07-07-07|…
  • Riff1(gtr1)-Distortion 
              g-5-------------^17^5-^17^5-------------------------- 
              e-5--------^17^5-----------------12-11--11-5----5--- 
              b-5---^17^5--------------------------x---x-7---7-----…
  • Riff1-Digitech whammy (doubles an octave below) 
              f-335553335553635br53535356666353br- 
              
              Riff2-Distortion 
              b-0-0---0-0---0-0--- 
              f-0-0---0-0---0-0--- 
              B-0-0--x0-0-xx0-0---…
  • Tune : (high to low) F#  C#  G#  C#  
     
    VERSE
    F# ----------------------------------------------------------------------------
    C# ----------------------------------------------------------------------------
    G# ----------------------------------------------------------------------------
    C#…
  • Intro
               G  -----------------------------------------
               D  -----------------------------------------
               A  -3/7-3/5-3/7-3/4-4/7-3/6-3/5-3-3/4-------
               E  -----------------------------------------…
  • TUNING: Drop D, with all string flatted a half step
              
                  Db|--------|
                  Ab|--------|
                  Db|--------|
                  Gb|--------|
                  Bb|--------|
                  Eb|--------|…
  • Tuning b f# b g b e
    
    Intro (Gtr 1)
    E----------------------------------|----------------------------------
    B----------------------------------|----------------------------------
    G----------------------------------|----------------------------------
    B--7-9-9-9-9-9-9-9-9-9-9-9-9-9-9-9-|-9-9-9-9-9-9-9-9-9-9-9-9-9-9-9-9--
    F#---------------------------------|----------------------------------
    B----------------------------------|----------------------------------
    
    
    E----------------------------------|----------------------------------
    B----------------------------------|----------------------------------
    G----------------------------------|----------------------------------
    B---7-9-9-9-10-9-7-7-9--7-9-7-9----|-9-9-9-9-9-9-9-9-9-9-9-9-7-9-7-9--
    F#---------------------------------|----------------------------------
    B----------------------------------|----------------------------------
    
    Gtr…
  • TUNING: tune your guitar as follows low to high (A#-F#-B-E-G#-C#)
    
    
         INTRO PART A: (bracketed notes played by guitar two)
    
       C#|--------------------------------|
       G#|--------------------------------|
        E|--6/76------6/76------6---7---|…
  • Drop E down to Db
    
    intro
    Db-0-7h8-8h10-12-
    
    verse
    Db-0-3-0--0-3-0-2-0--0-3-0-3-0-
    
    other riff
    Db-00000000-3333-5555-1111-3333-
    
    outro
    Db-0000000-
    
    
    
Наверх