Аккорды «S.O.D.»

S.O.D.
S.O.D. - единовременный (точнее, как показала дальнейшая практика) двувременный кроссоверный проект, собранный двумя музыкантами Anthrax (гитаристом Скоттом Яном и ударником Чарли Бенанте) вместе с бывшим бас-гитаристом той же группы, Дэнни Лилкером, и вокалистом-тяжеловесом Билли Милано в 1985 году в Нью-Йорке.. За три дня был записан и смикширован 21-песеннй альбом ‘Speak English Or Die' этой новоявленной группы, название которой расшифровывается как "Stormtroopers Of Death". Впрочем и название… Читать полностью... S.O.D. - единовременный (точнее, как показала дальнейшая практика) двувременный кроссоверный проект, собранный двумя музыкантами Anthrax (гитаристом Скоттом Яном и ударником Чарли Бенанте) вместе с бывшим бас-гитаристом той же группы, Дэнни Лилкером, и вокалистом-тяжеловесом Билли Милано в 1985 году в Нью-Йорке.. За три дня был записан и смикширован 21-песеннй альбом ‘Speak English Or Die' этой новоявленной группы, название которой расшифровывается как "Stormtroopers Of Death". Впрочем и название диска тоже составляет собой аббревиатуру SOD. Тяжелая и беспринципная хардкоровая оргия, грохочущая со сверхсветовой скоростью, была записана под явным впечатлением от Suicidal Tendencies и Minor Threat, но превзошла их по радикальности звучания и буйству. Пресса с одной стороны пришла в восторг от столь свежего металлизированного видения хардкора, а с другой стороны на группу посыпались обвинения в расистских и профашистских взглядах, обнажаемых в таких песнях, как 'Fuck The Middle East' и 'Speak English Or Die'. После выхода этого короткого получасового альбома последовало небольшое американское турне (всего шесть концертов), по завершении которого музыканты разбрелись по своим родным коллективам — Scott и Charlie посвятили себя второму лонгплею Anthrax 'Spreading The Disease', Danny Lilker стал двигать группу Nuclear Assault, a Billy Milano дождался, пока не пропьются все доходы от турне и ‘Speak English Or Die', и собрал Method Of Destruction (M.O.D.) — логическое и музыкальное продолжение идей S.O.D. Спустя семь лет Stormtroopers Of Death реформировались только для того, чтобы выпустить диск с записью свежего концерта в родном нью-йоркском клубе C. B. G. B. И пусть вас не смущает название "Live At The Budokan" — к Японии данный ностальгический концерт не имеет ни малейшего отношения. В апреле 1999 года специально для выпуска второго студийного альбома (через четырнадцать лет после первого!!) был подписан контракт с Nuclear Blast Records. Пластинка уместила в себя издевательства практически над всеми металлическими жанрами, возникшими после 1985 года, вплоть до блэк-метала. ‘Bigger Than The Devil' был тепло встречен повсеместно, хотя практически каждый слушатель не забывал добавить, что все-таки в 1985 тоду группа слушалась куда угарнее. Этот практически разовый проект повлиял на музыкантов тяжелой сцены по всему миру. В 2001 году выходит DVD "Speak English or Live", куда вошли записи выступления с концерта в Будокане, с фестиваля в Германии и записанные концертные треки с японского турне. Также был переиздан дебютный альбом "Speak English or Die" с двумя новыми студийными треками. Это переиздание было посвящено миллионной продаже этого альбома. В 2002 году выходит ещё один DVD - "Kill Yourself: The Movie", а в 2003 году группа распадается из-за возникших разногласий между Яном и Милано. Несмотря на все заявления, Stormtroopers Of Death выпускают в 2007 году третий полноформатный альбом "Rise of the Infidels". В альбом вошел ранее записанный материал. В октябре 2011 года Скотт Ян давал интервью журналу UnRatd, где сообщил о том, что вряд ли проскочит та же искра, что была в самом начале и что он не чувствует необходимости повторить свой былой успех. Скрыть...
Популярные аккорды S.O.D.:
алфавиту | просмотрам | случайно
  • Instrument: 6 String Guitar
    
    Tuning: Dropped D (D A D G B E)RIFF A (main riff)
    
    E|--------------------------||
    B|--------------------------||
    G|--------------------------||
    D|---1--0-------3--2--------||
    A|---1--0-------3--2--------||
    D|---1--0--0-0--3--2--0-0---||
    
    
    RIFF…
  • Tuning: Dropped D (D A D G)
    
    With Lots of Distortion
    
    Intro
    Main Riff
    |---------------------------------||
    |---------------------------------||
    |---------------------------------||X4 on its own
    |-0-2-0-3-0-2-0-3-0-0-0-0--6--5---||
    
    |---------------------------------||
    |---------------------------------||
    |---------------------------------||X8…
  • Bass Intro Riff
    |-------------------------------------|
    |-------------------------------------|
    |-------------------------------------|
    |-2-3-2---0-2-3-2---2-3-2---0-2-3-5-3-|
    
    
    Riff 1 (played with Bass intro after it is…
  • Tune down 1 step (dropped C tuning)
    
      main-riff
    D:|----------------------------------|
    A:|----------------------------------|
    F:|----------------------------------|
    C:|----------------------------------|
    G:|--5--6---9--8---2--3--0-(0)-------|
    C:|--5--6---9--8---2--3--0-(0)-------|…
  • Tune down 1 step (dropped C tuning)
    
    Intro   
    D:|----------------------------------------------------|
    A:|----------------------------------------------------|
    F:|----------------------------------------------------|
    C:|----------------------------------------------------|
    G:|---1-------------00---1-------------0-0-0-0-0-0-0-0-|
    C:|-0-1-0--B-A-S-S--00-0-1-0--B-A-S-S--0-0-0-0-0-0-0-0-|…
  • Tune down 1/2 step
    
    Intro:
        Riff 1                  3x
    Eb:|---------------------------------------------------------------|
    Bb:|---------------------------------------------------------------|
    Gb:|-7-7--7-6-6-6--6-8-8-8-7-7-6^7^6-------------------------------|
    Db:|-0-0--0-0-0-0--0-0-0-0-0-0--------7-7--7-5-5--5-8-8--8-7-7-7-7-|
    Ab:|----------------------------------0-0--0-0-0--0-0-0--0-0-0-0-0-|
    Eb:|---------------------------------------------------------------|…
  • Riff 1
    |--------------------------------------------------|
    |--------------------------------------------------|
    |--------------------------------------------------|
    |-2-2-5-4-3--2-2-5-4-3--2-2-5-4-3--7-7-7-7-8-8-8-8-|
    |-2-2-5-4-3--2-2-5-4-3--2-2-5-4-3--7-7-7-7-8-8-8-8-|
    |-0-0-3-2-1--0-0-3-2-1--0-0-3-2-1--5-5-5-5-6-6-6-6-|
    
    Riff…
  • Tune down 1/2 step
    
    Intro : The king order food at burger king....
    
      drums roll in ...
    
    Riff 1 - play two times
    Eb:|---------------------------------------------------------------|
    Bb:|---------------------------------------------------------------|
    Gb:|---------------------------------------------------------------|
    Db:|---------------------------------------------------------------|
    Ab:|-----------------------------------1p0------1p0------1p0-------|
    Eb:|-1p0--0-0-0--1p0--0-0-0-1p0--0-0-0----0-0-0----0-0-0-----0-0-0-|…
  • Tune down 1/2 step     
    Eb:|--------------------------------------|
    Bb:|--------------------------------------|
    Gb:|--------------------------------------|
    Db:|--------------------------------------|
    Ab:|---8----------------8-----------------|
    Eb:|-------B--A--S--S------B--A--S--S-----|
    
    Riff…
  • Tune down 1/2 step
    
    Intro 
    
       riff 1 - 4 times
    Eb:|-----------------------|
    Bb:|-----------------------|
    Gb:|-----------------------|
    Db:|--------6-6-6----------|
    Ab:|--5-5-5-4-4-4-2-(2)----|
    Eb:|--3-3-3-------0-(0)----|…
  • Tune down 1/2 step
    
    Intro
    Eb:|--------------------------------------------|
    Bb:|--------------------------------------------|
    Gb:|--7-7-7-7-------7-7-7-7---------7-7-7-7-----|
    Db:|--------------------------------------------|
    Ab:|------------------------4~------------------|
    Eb:|--------------------------------------------|…
  • Tune down 1/2 step
    
    Intro
               3 times               
    Eb:|-----------------------------|----------------------------|
    Bb:|-----------------------------|----------------------------|
    Gb:|-----------------------------|----------------------------|
    Db:|-----------------------------|----------------------------|
    Ab:|--5--4--2--2-2-2-2-2-2-2-2---|--2---2---2---2---2--(2)----|
    Eb:|--3--2--0--0-0-0-0-0-0-0-0---|--0---0---0---0---0--(0)----|
    
    verse…
  • Let each E5 chord ring 
    For a 4 count
    Intro                        
    |-----|-----|-----|-----|    |----------------------------|
    |-----|-----|-----|-----|    |----------------------------|
    |-----|-----|-----|-----|    |--9-----10----12-----9--7--|…
  • Tune down 1/2 step
    
    Intro 
             play 3 times                         than this part
    Eb:|--------------------------------------|-----------------------------|
    Bb:|--------------------------------------|-----------------------------|
    Gb:|--------------------------------------|-----------------------------|
    Db:|10-10-10--9-(9)----7--7--7--9-(9)-----|10-10-10--9--9--9--7-(7)-----|
    Ab:|-8--8--8--7-(7)----5--5--5--7-(7)-----|-8--8--8--7--7--7--5-(5)-----|
    Eb:|-8--8--8--7-(7)----5--5--5--7-(7)-----|-8--8--8--7--7--7--5-(5)-----|
    
    now…
  • Tune down 1/2 step
    
    Intro                   
    Eb:|-------------------------------------|
    Bb:|-------------------------------------|
    Gb:|-------------------------------------|
    Db:|-------------------------------------|
    Ab:|--6--3--6--8-------6--3--6--8--------|
    Eb:|--4--1--4--6-------4--1--4--6--------|…
  • Tune down 1/2 step
    
    Riff 1 - 4 times
       What ever happend to Celtic Frost ?...
    Eb:|------------------------------------|
    Bb:|----------------------3-------------|
    Gb:|----------------------3-------------|
    Db:|----------------------1-------------|
    Ab:|--6-6-/-5--6---3--2--1-------------|
    Eb:|--4-4-/-3--4---1--0----------------|
    
    Riff…
  • Fixed Riff 2.
     
     Riff 1
     |---------------------|
     |---------------------|
     |---------------------|
     |-5----5----5----5----|
     |-5----5----5----5----|
     |-3----3----3----3----|
     
     Riff 2
     |--------------------------|
     |--------------------------|…
  • Tune down 1/2 step
    
    Intro
         palm mute on E
    Eb:|-----------------------------------------------------------|
    Bb:|-----------------------------------------------------------|
    Gb:|-----------------------------------------------------------|
    Db:|-----------------------------------------------------------|
    Ab:|-X-X-X-X-X-X-X-X-X-X-X-X-X-X-X-X-X-X-X-X-X-X-X-X-X-X-X-X-X-|
    Eb:|-X-X-X-X-X-X-X-X-X-X-X-X-X-X-X-X-X-X-X-X-X-X-X-X-X-X-X-X-X-|…
  • Riff 1 (all notes muted)
    E|---------------------------------|-----|
    B|---------------------------------|-----|
    G|---------------------------------|-----|Play this the
    D|-----4-------5-------4-------4---|-----|last time only
    A|---4---4---5---5---4---4---4---4-|--4--|
    E|-2-------3-------2-------2-------|--2--|
    
    Riff…
  • .=palm mute
    
    Riff 1
    
    e:|---------------------| 
    B:|---------------------| 
    G:|---------------------| 
    D:|----4-5--------------| 
    A:|-4--2-3-5/4----------| 
    E:|-2------3/2----------|
    
    Riff 2
    
    e:|----------------------------------|---|…
  • Tune down 1/2 step
    
    Intro
    Eb:|---------------------------------------------------|
    Bb:|---------------------------------------------------|
    Gb:|---------------------------------------------------|
    Db:|---------------------------------------------------|
    Ab:|-------------------------------7-----7----(7)------|
    Eb:|----/-5---(5)--B-A-S-S---------5-----5----(5)------|…
Наверх