Аккорды «Taproot»

Taproot
Taproot — американский ню-метал квартет из Энн-Арбора, штат Мичиган. Taproot гастролировали с такими группами, как Korn, Deftones, Staind, P.O.D., Disturbed, Chevelle и Linkin Park. Становление (1998—1999) В 1998 году Taproot отправили свой демо-материал фронтмену группы Limp Bizkit Фреду Дёрсту. Дёрст был впечатлён этим материалом и предложил Taproot подписать контракт с Interscope Records. Тем не менее, после продолжительных переговоров Taproot в итоге заключили контракт с Atlantic Records.… Читать полностью... Taproot — американский ню-метал квартет из Энн-Арбора, штат Мичиган. Taproot гастролировали с такими группами, как Korn, Deftones, Staind, P.O.D., Disturbed, Chevelle и Linkin Park. Становление (1998—1999) В 1998 году Taproot отправили свой демо-материал фронтмену группы Limp Bizkit Фреду Дёрсту. Дёрст был впечатлён этим материалом и предложил Taproot подписать контракт с Interscope Records. Тем не менее, после продолжительных переговоров Taproot в итоге заключили контракт с Atlantic Records. Эти события послужили причиной размолвки между группами System of A Down (которые поддержали Taproot в их решении) и Limp Bizkit. Из-за этого Дёрст даже исключил System of A Down из Family Values Tour 1999, заменив их на группу Staind. В этот же период группа независимо выпустила три диска: …Something More Than Nothing (1998), Mentobe (1998) и Upon Us (1999). Gift/Welcome (2000—2004) Группа выпустила свой дебютный альбом Gift 27 июня 2000 года. Продюсером выступил Ульрих Уайлд, известный по своей работе с Deftones, Static-X и Staind. Сингл «Again & Again» с этого альбома приносит группе известность. Этот альбом привлёк внимание Джека Осборна, сына Оззи Осборна, и Taproot были приглашены на Ozzfest в 2000 и 2001 году. 15 октября 2002 года Taproot выпускают второй альбом Welcome, продюсировал который Тоби Райт (Alice In Chains, Korn, Metallica). Он стартовал с 17 позиции Billboard 200 и разошёлся тиражом более 51000 копий в первую неделю продаж. Во многом это объясняется успехом сингла Poem, которой занял пятую позицию в Mainstream Rock charts. За ним последовал второй сингл Mine, правда, с более умеренным успехом. На сегодняшний день альбом Welcome является наиболее успешным и практически приблизился к статусу золотого, продавшись тиражом примерно 475 000 копий. После поездки по США в рамках Music as a Weapon Tour, организованного группой Disturbed, а также гастролей по Европе, группа взяла двухгодичный перерыв. Blue-Sky Research (2005—2006) После перерыва Taproot выпускают третий альбом Blue-Sky Research 16 августа 2005 года. Он дебютировал c 33 позиции в Billboard 200 и был распродан в количестве около 28000 копий в первую неделю. В поддержку этого альбома Taproot участвовали в гастролях вместе с Evans Blue и From Satellite. 23 мая 2006 года было объявлено, что Taproot расстались с Atlantic Records после удручающих продаж альбома Blue-Sky Research. В настоящее время альбом разошёлся тиражом 150 000 копий с момента релиза. В июне 2006 ударник Джеррод Монтагью через блог на MySpace подтвердил разрыв с Atlantic Records. Our Long Road Home (2008-2009) 5 марта 2007 года группа подтвердила, что они записывают новый альбом с продюсером Тимом Паталаном. По словам басиста Филиппа Липскомба, их новый альбом Our Long Road Home будет готов к началу 2008 года. 2 марта 2008 группа выложила на своем сайте песню с Our Long Road Home, названную «You’re Not Home Tonight». В тизере к новому альбому, выложенному на YouTube в апреле 2008-го, было сказано, что альбом будет выпущен 5 августа 2008 года. Было также объявлено, что новый альбом будет выпущен независимо через фирму Velvet Hammer Music при поддержке самой группы. Распространение было поручено RED Distribution, принадлежащей Sony. Our Long Road Home был выпущен 16 сентября 2008 года. В том же месяце группа также заявила, что постоянный ударник Джеррод Монтагью не будет участвовать в туре в поддержку этого альбома, и вместо него будет играть Ник Фределл. Видео на «Wherever I Stand», сингл с «Our Long Road Home», сейчас можно найти на YouTube. Plead The Fifth (2010 по наши дни) В 2010 году группа подписала контракт с Victory Records. 1 апреля был выпущена песня «Fractured (Everything I Said Was True)» — головной сингл будущего альбома. Вскоре после этого группа выпустила свой студийный альбом Plead The Fifth. В 2010 году у Taproot состоялся тур по США, в туре также принимали участие группы Divide the Day, Anew Revolution, Ice Nine Kills и Destrophy. Состав группы * Стивен Ричардс (Stephen Richards) — вокал, гитара * Майк ДеВульф (Mike DeWolf) — гитара * Филипп Липскомб (Phil Lipscomb) — бас-гитара * Джеррод Монтагью (Jarrod Montague) — ударные (приостановил своё участие в группе) * Ник Фределл (Nick Fredell) — ударные (в настоящее время) Скрыть...
Популярные аккорды Taproot:
алфавиту | просмотрам | случайно
  • INTRO (WAIT FOR GUITAR)
    
    G-----------------------------------------------|
    D-----------------------------------------------|
    A---0h2-2--0h2-2--33----------------------------|
    E-----------------------------------------------|
    
    MAIN…
  • e|---------------------------------------------------------------------------|
    B|---------------------------------------------------------------------------|
    G|-----------4-------------------4-------------------------------------------|
    D|-----0-----------0-------2-----------2----0-0------------------------------|
    A|--2-----2-----2-------0-----0-----0----------------------------------------|
    E|---------------------------------------------------------------------------|
    
    e|---------------------------------------------------------------------------|
    B|---------------------------------------------------------------------------|
    G|-----------4-----------4------------------4-----------4--------------------|
    D|-----0-----------0-------0-0--------2-----------2--------0-0---------------|
    A|--2-----2-----2-----2------------0-----0-----0-----0-----------------------|
    E|---------------------------------------------------------------------------|
    
    e|---------------------------------------------------------------------------|
    B|---------------------------------------------------------------------------|
    G|-----------4-----------4------------------4-----------4--------------------|
    D|-----0-----------0-------0-0--------2-----------2--------0-0---------------|
    A|--2-----2-----2-----2------------0-----0-----0-----0-----------------------|
    E|---------------------------------------------------------------------------|
    
    e|---------------------------------------------------------------------------|
    B|---------------------------------------------------------------------------|
    G|-----------4-----------4------------------4-----------4--------------------|
    D|-----0-----------0-------0-0--------2-----------2--------0-0---------------|
    A|--2-----2-----2-----2------------0-----0-----0-----0-----------------------|
    E|---------------------------------------------------------------------------|
    
    e|---------------------------------------------------------------------------|
    B|---------------------------------------------------------------------------|
    G|-----------4-----------4------------------4-----44444444-------------------|
    D|-----0-----------0-------0-0--------2-----------22222222-------------------|
    A|--2-----2-----2-----2------------0-----0-----0-----------------------------|
    E|---------------------------------------------------------------------------|
    
    e|---------------------------------------------------------------------------|
    B|---------------------------------------------------------------------------|
    G|---------------------------------------------------------------------------|
    D|--4444444444444444----2222222222222222---4444444444444444--2222222222222222|
    A|--2222222222222222----0000000000000000---2222222222222222--0000000000000000|
    E|---------------------------------------------------------------------------|
    
    e|---------------------------------------------------------------------------|
    B|---------------------------------------------------------------------------|
    G|-----------4-----------4------------------4-----------4--------------------|
    D|-----0-----------0-------0-0--------2-----------2--------0-0---------------|
    A|--2-----2-----2-----2------------0-----0-----0-----0-----------------------|
    E|---------------------------------------------------------------------------|
    
    e|---------------------------------------------------------------------------|
    B|---------------------------------------------------------------------------|
    G|-----------4-----------4------------------4-----------4--------------------|
    D|-----0-----------0-------0-0--------2-----------2--------0-0---------------|
    A|--2-----2-----2-----2------------0-----0-----0-----0-----------------------|
    E|---------------------------------------------------------------------------|
    
    e|---------------------------------------------------------------------------|
    B|---------------------------------------------------------------------------|
    G|-----------4-----------4------------------4-----------4--------------------|
    D|-----0-----------0-------0-0--------2-----------2--------0-0---------------|
    A|--2-----2-----2-----2------------0-----0-----0-----0-----------------------|
    E|---------------------------------------------------------------------------|
    
    e|---------------------------------------------------------------------------|
    B|---------------------------------------------------------------------------|
    G|-----------4-----------4------------------4------444444--------------------|
    D|-----0-----------0-------0-0--------2------------222222--------------------|
    A|--2-----2-----2-----2------------0-----0-----0-----------------------------|
    E|---------------------------------------------------------------------------|
    
    e|---------------------------------------------------------------------------|
    B|---------------------------------------------------------------------------|
    G|-----------7-7-7-7------------6-6-6-6------------7-7-7-7---------6-6-7-6---|
    D|-44444444--x-x-x-x--22222222--x-x-x-x--44444444--x-x-x-x--22222--x-x-x-x---|
    A|-22222222--5-5-5-5--00000000--4-4-4-4--22222222--5-5-5-5--00000--4-4-5-4---|
    E|---------------------------------------------------------------------------|
    
    e|---------------------------------------------------------------------------|
    B|---------------------------------------------------------------------------|
    G|---------------------------------------------------------------------------|
    D|4444444444444444---77777777777---2222222222222222222222222-----------------|
    A|2222222222222222---55555555555---0000000000000000000000000-----------------|
    E|---------------------------------------------------------------------------|
    
    e|---------------------------------------------------------------------------|
    B|---------------------------------------------------------------------------|
    G|---------------------------------------------------------------------------|
    D|4444444444444444---77777777777---2222222222222222222222222-----------------|
    A|2222222222222222---55555555555---0000000000000000000000000-----------------|
    E|---------------------------------------------------------------------------|
    
    e|---------------------------------------------------------------------------|
    B|---------------------------------------------------------------------------|
    G|-----------4-----------4------------------4-----------4--------------------|
    D|-----0-----------0-------0-0--------2-----------2--------0-0---------------|
    A|--2-----2-----2-----2------------0-----0-----0-----0-----------------------|
    E|---------------------------------------------------------------------------|
    
    e|---------------------------------------------------------------------------|
    B|---------------------------------------------------------------------------|
    G|-----------4-----------4------------------4-----4--------------------------|
    D|-----0-----------0-------0-0--------2--------------------------------------|
    A|--2-----2-----2-----2------------0-----0-----0-----------------------------|
    E|---------------------------------------------------------------------------|
    
    e|---------------------------------------------------------------------------|
    B|---------------------------------------------------------------------------|
    G|-----------4-----------4------------------4-----------4--------------------|
    D|-----0-----------0-------0-0--------2-----------2--------0-0---------------|
    A|--2-----2-----2-----2------------0-----0-----0-----0-----------------------|
    E|---------------------------------------------------------------------------|
    
    e|---------------------------------------------------------------------------|
    B|---------------------------------------------------------------------------|
    G|-----------4-----------4------------------4-----444444---------------------|
    D|-----0-----------0-------0-0--------2-----------222222---------------------|
    A|--2-----2-----2-----2------------0-----0-----0-----------------------------|
    E|---------------------------------------------------------------------------|
    
    e|---------------------------------------------------------------------------|
    B|---------------------------------------------------------------------------|
    G|-----------7-7-7-7------------6-6-6-6------------7-7-7-7---------6-6-7-6---|
    D|-44444444--x-x-x-x--22222222--x-x-x-x--44444444--x-x-x-x--22222--x-x-x-x---|
    A|-22222222--5-5-5-5--00000000--4-4-4-4--22222222--5-5-5-5--00000--4-4-5-4---|
    E|---------------------------------------------------------------------------|
    
    e|---------------------------------------------------------------------------|
    B|---------------------------------------------------------------------------|
    G|---------------------------------------------------------------------------|
    D|4444444444444444---77777777777---2222222222222222222222222-----------------|
    A|2222222222222222---55555555555---0000000000000000000000000-----------------|
    E|---------------------------------------------------------------------------|
    
    e|---------------------------------------------------------------------------|
    B|---------------------------------------------------------------------------|
    G|---------------------------------------------------------------------------|
    D|4444444444444444---77777777777---2222222222222222222222222-----------------|
    A|2222222222222222---55555555555---0000000000000000000000000-----------------|
    E|---------------------------------------------------------------------------|
    
    e|---------------------------------------------------------------------------|
    B|---------------------------------------------------------------------------|
    G|---------------------------------------------------------------------------|
    D|4444444444444444---77777777777---2222222222222222222222222-----------------|
    A|2222222222222222---55555555555---0000000000000000000000000-----------------|
    E|---------------------------------------------------------------------------|
    
    e|---------------------------------------------------------------------------|
    B|---------------------------------------------------------------------------|
    G|---------------------------------------------------------------------------|
    D|4444444444444444---77777777777---2222222222222222222222222-----------------|
    A|2222222222222222---55555555555---0000000000000000000000000-----------------|
    E|---------------------------------------------------------------------------|
    
    e|---------------------------------------------------------------------------|
    B|---------------------------------------------------------------------------|
    G|---------------------------------------------------------------------------|
    D|4--------------2--------4------------2--------4-------2--------4-------2---|
    A|2--------------0--------2------------0--------2-------0--------2-------0---|
    E|---------------------------------------------------------------------------|
    
    e|---------------------------------------------------------------------------|
    B|---------------------------------------------------------------------------|
    G|---------------------------------------------------------------------------|
    D|4----------2---------4----------2------------------------------------------|
    A|2----------0---------2----------0------------------------------------------|
    E|---------------------------------------------------------------------------|
    
    e|---------------------------------------------------------------------------|
    B|---------------------------------------------------------------------------|
    G|4444444444444444---77777777777---2222222222222222222222222-----------------|
    D|xxxxxxxxxxxxxxxx---xxxxxxxxxxx---xxxxxxxxxxxxxxxxxxxxxxxxx-----------------|
    A|2222222222222222---55555555555---0000000000000000000000000-----------------|
    E|---------------------------------------------------------------------------|
    
    e|---------------------------------------------------------------------------|
    B|---------------------------------------------------------------------------|
    G|4444444444444444---77777777777---2222222222222222222222222-----------------|
    D|xxxxxxxxxxxxxxxx---xxxxxxxxxxx---xxxxxxxxxxxxxxxxxxxxxxxxx-----------------|
    A|2222222222222222---55555555555---0000000000000000000000000-----------------|
    E|---------------------------------------------------------------------------|
    
    e|---------------------------------------------------------------------------|
    B|---------------------------------------------------------------------------|
    G|4444444444444444---77777777777---2222222222222222222222222-----------------|
    D|xxxxxxxxxxxxxxxx---xxxxxxxxxxx---xxxxxxxxxxxxxxxxxxxxxxxxx-----------------|
    A|2222222222222222---55555555555---0000000000000000000000000-----------------|
    E|---------------------------------------------------------------------------|
    
    e|---------------------------------------------------------------------------|
    B|---------------------------------------------------------------------------|
    G|4444444444444444---77777777777---2222222222222222222222222-----------------|
    D|xxxxxxxxxxxxxxxx---xxxxxxxxxxx---xxxxxxxxxxxxxxxxxxxxxxxxx-----------------|
    A|2222222222222222---55555555555---0000000000000000000000000-----------------|
    E|---------------------------------------------------------------------------|…
  • Drop d tuning
    
    --------------------------------------------
    --------------------------------------------
    --------------------------------------------
    ---9-9(s)-5-5-5---10-10(s)-7-7-7------------   x2
    ---7-7(s)-3-3-3---12-12(s)-5-5-5------------
    --------------------------------------------
    
    
    -------------------------------------------------
    -------------------------------------------------
    -------------------------------------------------
    ---5(s)-7---5(s)-7--6-6-----5(s)-7--5(s)--7-8-8--
    ---3----5---3----5--8-8-----5----7--5-----7-8-8--
    ----------------------------5----7--5-----7-8-8--…
  • Gtr I (Eb Ab Db Gb Bb Eb) 
    
     4/4        Intro, Verse
      Gtr I
    |--------------------------------------------------------|
    |--------------------------------------------------------|
    |--------------------------------------------------------|
    |---------------------------------------------------9----|
    |-----9---9-----9---9-----9-----9---9-----9---9-----9----|
    |-6-6---6---6-6---6---6-6-7-6-6---6---6-6---6---6-6------|…
  • TUNING: tune your guitar as follows (A-D-G-C-F-A)
              
              
                   RIFF A:	
              		
                  A|---------------------------------|
                  F|---------------------------------|…
  • Tuning – G,D,A,Db
    
     Riff A (Intro):
    
     G|-------------|
     D|-------------|
     A|-------------|
    Db|-2-2-2-0-3-2-|
    
      Riff B (Verse):
    
     G|-----------|
     D|-2---2---2-|
     A|--0*--0*---|
    Db|-----------|
    
      Riff C (Pre-Chorus):
    
     G|------------------------------------|…
  • INTRO:
    play (4x)with clear sound.
    e:-
    b:-
    g:-
    d:-6-6-6-6-6-6-6-6--3-0-2-
    a:-6-6-6-6-6-6-6-6--3-0-2-
    e:-4-0-0-0-4-0-0-0--3-0-2-
    
    SMILE
    
    heavy distortion comes in.
    e:-
    d:-
    g:-
    d:-66-6666-6666-3-0-2
    a:-66-6666-6666-3-0-2
    e:-44-4444-4444-3-0-2…
  • Verse 
    B|--------------------------------------------------------| 
    G|--------------------------------------------------------| 
    D|--------------------------------------------------------| 
    A|-00-0-00-0--1010-10-1010-10--55-5-55-5--1010-10-1010-10-|…
  • Intro: clean 
    
    B|----------------------------  'ill times rollin' 
    G|---------------------------- 
    D|---------------------------- 
    A|---------------------------- 
    E|---5---6---5---9---5-------- 
    A|---0-0-0-0-0-0-0-0-0-0------…
  • Tuning (low to high): A-E-A-D-G-B
    
    Intro: (distortion)
    [--------------------------------|
    [--------------------------------|
    [--------------------------------|
    [1-1-1-1-------------------------|  3X
    [1-1-1-1-------------------------|
    [1-1-1-1-------------------------|
    
    [--------------------------------|
    [--------------------------------|
    [--------------------------------|
    [1-1-1-1-----0-------------------|
    [1-1-1-1-----0-(let…
  • Drop-D Tuning (DADGBE)
    
    Intro
    E------------------------------------------------|
    B------------------------------------------------|
    G------------------------------------------------|
    D--2--~~~~~~~~~~~~~let ring~~~~~~~~~~------------|
    A--0--~~~~~~~~~~~and…
  • Tuning: (A D G C E A)
    
    Intro/ Verse
    
    A|-----------3------------------------3----------|
    E|------1-------1----1----------1--------1-----1-|
    C|-0---------------------0----0------------------|
    G|-2/3-----3-------3-----32-------2--------2----|
    D|-----------------------------------------------|
    A|-----------------------------------------------|
    
    1.You…
Наверх