Аккорды «Tenacious D»

Tenacious D
«Tenacious D» - это два известных раздолбая и хулигана Кайл Гэсс и Джек Блэк, которые, кроме всего прочего, занимаются музыкой! Да, аж с 1994 года они ваяют шедевры в таких стилях, как акустический рок, хард-рок, ну а в основном - в жанре комедийного рока. Познакомились они в 1985 году (Джеку было 16, а Кайлу - 24), так как оба состояли в труппе театра «Actor's Gang». И уже через некоторое время после знакомства они начали музицировать на квартире Кайла в Лос-Анджелесе. Поначалу ребята называли… Читать полностью... «Tenacious D» - это два известных раздолбая и хулигана Кайл Гэсс и Джек Блэк, которые, кроме всего прочего, занимаются музыкой! Да, аж с 1994 года они ваяют шедевры в таких стилях, как акустический рок, хард-рок, ну а в основном - в жанре комедийного рока. Познакомились они в 1985 году (Джеку было 16, а Кайлу - 24), так как оба состояли в труппе театра «Actor's Gang». И уже через некоторое время после знакомства они начали музицировать на квартире Кайла в Лос-Анджелесе. Поначалу ребята называли себя «The Axe Lords», но в итоге решили остановиться на названии «Tenacious D». После нескольких месяцев репетиций «Tenacious D» отыграли свой первый концерт, который прошел в баре «Al's» - дело было в 1994 году. По счастливой случайности на том шоу присутствовал Дэвид Кросс - ему очень понравилось их выступление. В итоге это привело к созданию «сериала», названного «Tenacious D: The Greatest Band On Earth», который был показан в эфире комедийного скетч-шоу «Mr. Show» (на канале «HBO», одним из продюсеров которого и являлся Дэвид Кросс). В «Tenacious D: The Greatest Band On Earth» они, собственно, разыгрывали свой путь к славе в мире музыкальной индустрии. После выхода первых 6 эпизодов шоу было закрыто. Но у «Tenacious D» было уже достаточно фанатов, и 25 сентября 2001 года они выпустили свой дебютный альбом - «Tenacious D», который постепенно стал платиновым. Спустя пять лет они написали продолжение «The Pick of Destiny» (2006), которое идёт в качестве дополнения к их полнометражному фильму «Tenacious D In The Pick Of Destiny». Также лидера группы можно заметить в компьютерной игре студии Дабл Файн - Брутал Ледженд. Скрыть...
Популярные аккорды Tenacious D:
алфавиту | просмотрам | случайно
  • Verse: (You don't always have to fuck her hard)
    G|---------|
    D|-0-4-2---|
    A|-------0-| (x2)
    E|---------|
    
    Refrain: (Sometimes you've got to squeeze)
    G|---------|-----|
    D|---------|-0---|
    A|-2---2---|---0-|
    E|---3---3-|-----|
    
    Verse:…
  • Am
    e----------------------------------------------
    b--------------------1--1--1--1h3p1--0h1--1---1
    g--------0h2-----2---2--2-----------------2---2
    d--0h2-----------2---2--2-----------------2---2
    a----------------0---0--0-----------------0---0
    e----------------------------------------------…
  • Key:
    h  -  hammer-on
    p  -  pull-off
    b  -  bend string up
    () -  Grace note
    The whole intro is played very lively and loose. Just play along and you will see what
    I'm talking about. It's just funny to listen to.
    
    Jack plays…
  • -10----10----10----10-12-12b13r12-10------------------15p14p12-15p14p12-------|
    ----10----10----10-------------------10-10h11-10-8-10-------------------------|
    ------------------------------------------------------------------------------|
    ------------------------------------------------------------------------------|
    ------------------------------------------------------------------------------|
    ------------------------------------------------------------------------------|
    
    
    -15p14p12-15p14p12-15p14p12-15p14p12-15p14p12-15p14p12-17-15-14-12-14-12-10---|
    ------------------------------------------------------------------------------|
    ------------------------------------------------------------------------------|
    ------------------------------------------------------------------------------|
    ------------------------------------------------------------------------------|
    ------------------------------------------------------------------------------|
    
    
    -12-10-8-10-8-6h8-6h8-8b10r8-6h8/10-------------------------------------------|
    ------------------------------------------------------------------------------|
    ------------------------------------11-11-9-7-9/11-11-9-7-9-7-6-4-2-0-2-4-6---|
    ------------------------------------------------------------------------------|
    ------------------------------------------------------------------------------|
    ------------------------------------------------------------------------------|
    
    
    ------------------------------------------------------------------------------|
    ------------------------------------------------------------------------------|
    -7-6-4-2-7--------------------------------------------------------------------|
    ------------------------------------------------------------------------------|
    ------------------------------------------------------------------------------|
    ------------------------------------------------------------------------------|…
  • e---------------------------------|
      B---------------------------------|
      G----3^-0-3^-0--2-0--0------------|
      D----0--0-0--0------3-2--0-0-2p0p2|
      A---------------------------------|
      E-33------------------------------|…
  • KICK IN WITH DRUMS 
    G---------------------
    D---------------------
    E---------------------
    A---88888888-4444-6666 X3
    
    G--------------------
    D--------------------
    E--------------------
    A---8888888-4444-3333 X2
    
    G----------------------------------------
    D----------------------------------------
    E----------------------------------------
    A---88888888-4444-6666-88888888-4444-3333…
  • Verse
    G----------------------------------
    D----------------------------------
    A----------------------------------
    E-0-0-0-0-3-3-3-3-6-6-6-6-5-3-5-3--
    
     Chorus 1 (sorry if it looks confusing, but it does make sense!)
    G--------------------------------------------
    D--------------------------------------------
    A-777-0-7-7-777-0-7777-777-0-7-7-777-0-7777--
    E--------------------------------------------…
  • Bm - (X24432)
    A  - (X02220)
    E  - (022100)
    F# - (244322)
    
    Here is some variations (hammerons and pulloffs) to the chords in
    the beginning.
      Bm       A            E           F#
    |-----2----------------------------------------|
    |-----2h3-------2h3p2--2---------0-0-----2-2-2-|
    |-----4---4-----2----2-2-----0h1-1-1-----3-3-3-|
    |-----4---4-----2----2-2-----2---2-2-----4-4-4-|
    |-2-2-------0-0--------------2---2-2---4-4-4-4-|
    |------------------------0-0---------2---------|
    
    Bm…
  • D (w/hammer-on's)
    h=hammer-on p=pulloff
    
    e------3p2--------0h2---------
    b------------3----------------
    g---------------2-------------
    d-----------------------------
    a-----------------------------
    e-----------------------------
    D…
  • INTRO. x1
    |--1/3-33333--5-66-55555---
    |--1/3-33333--5-66-55555---
    |--1/3-33333--5-66-55555---
    |--3/5-55555--7-88-77777---
    |--3/5-55555--7-88-77777---
    |--1/3-33333--5-66-55555---
    
    
    U THINK U KNOW WHAT OZZY'S THINKING.........
    
    |--1/3-33333--5-66-55555---
    |--1/3-33333--5-66-55555---
    |--1/3-33333--5-66-55555---
    |--3/5-55555--7-88-77777---
    |--3/5-55555--7-88-77777---
    |--1/3-33333--5-66-55555---
    
    
    
    U…
  • tenacious D is in regular tuning EADGBE
    
    the order of the first cords of the first verse and so that is 
    real pretty and soft are all barre cords
    
    hear is the progression of them-----Em---C---A----G---B--
    
    the next cord…
  • Em						Section I
           How's it goin?
           C                        A
           That's the first thing I say to you
                 G                B      
            How's it goin? Are you flowing?
            Em
            Listen…
  • B          A                   E  A                B
    Last week, Kyle quit the band.    Now we're back together. 
      e|--------|
      B|--------|
      G|-8h9-8--|
      D|--------|
      A|--------|
      E|--------|…
  • e-2----|-5----|-x----|-3----|-x----|-2----|
    b-3----|-6----|-5----|-5----|-3----|-3----|
    g-2----|-5----|-6----|-5----|-4----|-2----|
    d-0----|-0----|-7----|-0----|-5----|-0----|
    a-x----|-x----|-x----|-x----|-x----|-x----|
    e-x----|-x----|-x----|-x----|-x----|-x----|
    
    
    jack…
  • F                     C     
     With karate I'll kick your ass
          G                   E
     From Here to Tienomen Square
     F                C
     Oh Yeah, motherfucker
               G                         E
     Im gonna kick your…
  • G  Em etc
    G  C  D  G
    
    Well we met at the food court in the mall
    She was in line at Arby's and I was sippin' on a malt
    Such a lovely girl I walked up to her
    I wanna make you mine and buy you diamonds and pearls
    She gave me…
  • Em          H            E          Em
    Can't you see he's the man, let me hear you applaud 
           Em          H           Em    H     Em  
    he is more than a man he's a shiny golden god. 
    H…
  • B                 A		  E         A   	     B (HAMMER ON (KG plays this Hammer On, not JB)
    Last week, kyle quit the band,      now we're back together (uh)
    B	    	  A		    E                       A…
  • A - (577655)
    G - (355433)
    D - (557775)
    B - (X24442)
    E - (022100)
    G2 - (320033)
    E2 - (200230)
    Em - (022000)
    F - (x33211)
    Am - (x02210)
    
    A  A  A  A
    
    A                  G
    The road is fuckin hard
        D              A
    The road…
  • Regular Tuning
     
    
               B                      Ab
    E-------------------------------------------------                      
    B-------------------------------------------------
    G-------------------------------------------------…
  • Intro/Chorus
    
              D             A          Bm         G
    I'm the only gay eskimo, I'm the only one i know,
              D            A       Bm             G
    I'm the only gay eskimo in my tribe
    
    
      D…
  • E  - (022100)
    D  - (X00232)
    B  - (X24442)     
    A  - (X02220)
    G  - (355433)
    F# - (244322)
    F  - (133211)
    D* - (5540XX)     
    C* - (332000)
    B* - (2210XX)  
    
    
    Intro
    JB
    |---------------------------------------------|
    |----------9-h10--9---------8p7---------------|
    |-------9------------9/7--------7-----8h9p8---|
    |----9----------------------------------------|
    |-7-----------------------5-------------------|
    |----------------------------------7----------|
    KG
    |--------------12-12--/------10-------7-------|
    |---------------------------------------------|
    |-----------------------/11-------/8----------|
    |---------------------------------------------|
    |---------------------------------------------|
    |---------------------------------------------|
    _______________________________________________
    JB
    |---------------------------------------------|
    |----------9-h10--9---------8p7--------4h5p4--|
    |-------9------------9/7--------7-------------|
    |----9----------------------------------------|
    |-7-----------------------5--------2----------|
    |---------------------------------------------|
    KG
    |-------12-12h14p12--------10--------7-------|
    |------------------12--------10--------7-----|
    |/13--------------------/11----11-/8-----8--|
    |--------------------------------------------|
    |--------------------------------------------|
    |--------------------------------------------|
    
    
    E…
  • Intro:
    Am
    This is the greatest and best song in the world...   Tribute.
    
    Verse 1:
    Am
    Long time ago me and my brother Kyle here,
    Am
    We was hitchhikin' down a long and lonesome road.
    Am
    All of a sudden, there shined…
  • Intro: Dm    Am    F  C G  
     
        Dm
    А long ass fuckin' time ago, 
        Dm
    In a town called Kickapoo, 
       Am
    There lived a humble family 
       Am
    Religious through and through. 
        F
    But yea there was a black sheep,…
Наверх