Аккорды «Terrorvision»

Terrorvision
Mало что известно о группе Terrorvision. Известно, что группа родом из английского городка Брэдфорд (Bradford), образовалась в 1991 году, что их четверо и что у них уже вышло пять альбомов. В детстве Тони был страшным разгильдяем и знал, почти как Остап Бендер, 400 сравнительно законных способов убить скуку. Чем он занимался в то прекрасное солнечное утро, непонятно – то ли прыгал на батуте во дворе своего дома, то ли полез на крышу в надежде заглянуть в чужой бассейн, то ли обкатывал новый велосипед,… Читать полностью... Mало что известно о группе Terrorvision. Известно, что группа родом из английского городка Брэдфорд (Bradford), образовалась в 1991 году, что их четверо и что у них уже вышло пять альбомов. В детстве Тони был страшным разгильдяем и знал, почти как Остап Бендер, 400 сравнительно законных способов убить скуку. Чем он занимался в то прекрасное солнечное утро, непонятно – то ли прыгал на батуте во дворе своего дома, то ли полез на крышу в надежде заглянуть в чужой бассейн, то ли обкатывал новый велосипед, но в результате он почему-то оказался застрявшим в ветвях дерева на достаточно большой высоте. Пока бедолага долго и мучительно ждал пожарников-спасителей, у него было время задуматься над собственным поведением. Он решил, что пора заниматься чем-то серьезным. И в итоге создал Terrorvision. Творчество группы основывалось, конечно же, на идолах детства Тони – Ramones и Cheap Trick, иногда ощущались брутальные последствия от длительного прослушивания Motorhead. Британская пресса сразу же повесила на детище Райта клеймо «анархистов-террористов». Бурная натура Тони не давала ему спать спокойно. В 1999 году сингл на песню Tequila непостижимым для всего острова образом занял второе место в национальном хит-параде. Говоря проще, у всех, кто уже вылез из памперсов, но еще не начал думать о воспитании правнуков и переезде в дом престарелых, наглухо оторвало крышу. У Тони ее оторвало чуть попозже, когда он накачался этой текилой до самых бровей и залез на крышу местного Hard Rock Cafe, а затем свалился оттуда в обнимку с буквой «H». С переломом обеих ног и пары ребер его отвезли в больницу, хотя даже в полуобморочном состоянии он не выпустил из рук кусок вывески. Какая идиллия, правда? Но затем все пошло через пень-колоду. Второй сингл, III Wishes, не попал даже в Top 40. Большой Босс из компании EMI, выпускавшей альбомы Terrorvision начиная с 1992 года, задумчиво почесал бровь и начал подсчитывать убытки. Судьба несостоявшихся звезд решилась очень быстро. Их выставили на улицу под меланхоличный английский дождик, оставив почти ни с чем. Все знали Terrorvision только как «группу-которая-спела-ту-самую-песню», но хит про текилу уже намозолил всем мозги и был предан забвению. «А нам все пофигу, мы е…тые!» Не знаю, слышал ли когда-нибудь Тони эту фразу, но через два года на известном независимом лейбле Roadrunner как ни в чем не бывало выходит новый альбом, название которого можно перевести как «А мы и рады, что ушли!» Многие наверняка видели по MTV клип на их второй сингл Fists Of Fury, в котором они намертво перестебали Мадонну с ее Don’t Tell Me и жестоко спародировали все, на что у них хватило цинизма, начиная от черных кожаных шляп и кончая ковбойским брейк-дансом посреди фальшивой прерии. Жаль только, что вскоре никто опять не вспомнит о парне, который любит пить текилу и прыгать на батуте. 13 лет провели вместе музыканты и вот теперь приняли миролюбивое решение разойтись. Но прежде они дали серию прощальных летне-осенних концертов, последний из которых состоялся в их родном Брэдфорде. Скрыть...
Популярные аккорды Terrorvision:
алфавиту | просмотрам | случайно
  • RIFF A: (distortion)
    E-|------------------|-----------------|------------------|-----------------|
    B-|------------------|-----------------|------------------|-----------------|
    G-|------------------|-----------------|------------------|-----------------|
    D-|-----8-----9------|-----8--9--8-----|-----8-----9------|-----8--9--8-----|
    A-|------------------|--------------9--|------------------|--------------9--|
    E-|-7----------------|-7---------------|-7----------------|-7---------------|…
  • Intro
    
    G|---------------------------------------------------------------------|
    D|----------------------3-3-3-3-6-6-5-5-----------------3-3-3-2--------|
    A|-11-/-3-3-3-3-5-5-5-5-----------------3-3-3-3-5-5-5-5----------3-2-1-|
    E|---------------------------------------------------------------------|
    
    
    Verse
    
    G|------------------------------------------------------|
    D|----------------------3-3--3--------------------------|
    A|-0-0--0-3-3--3-5-5--5--------0-0--0-3-3--3-5-5--5-----|
    E|--------------------------------------------------0-0-|
    
    G|--------------------------------------------------------|
    D|----------------------3-3--3----------------------------|
    A|-0-0--0-3-3--3-5-5--5--------0-0--0-3-3--3-2-0------0-2-|
    E|-----------------------------------------------3-0------|
    
    Play…
  • Chords : Am   x|0|2|2|1|0
             Em   0|2|2|0|0|0
             G    3|5|5|4|3|3       -They use this G
             F#   2|4|4|3|2|2       -They use this F
             G5   3|5|5|x|x|x
             A#5  6|8|8|x|x|x
             F5   1|3|3|x|x|x…
  • INTRO:                                                                    
    E-|-11---------------|-9---------------|-11--------------|-12-----------------|
    B-|-11---------------|-9---------------|-11--------------|-9------------------|
    G-|-11---------------|-9---------------|-11--------------|-9------------------|
    D-|-11---------------|-9---------------|-11--------------|-9------------------|
    A-|-9----------------|-9---------------|-9---------------|-9------------------|
    E-|-9----------------|-9---------------|-9---------------|-9------------------|…
  • Main Riff (Clean)
    				      h
      e|----------------------------------------|
      B|o-----3----2------------1----0---------o|
      G|--------0----0------------0----0--------|
      D|----------------2-------------------2---|
      A|o--------------------------------0-2---o|…
  • INTRO:
    
    E7#9        A7
    |-------------------------5-x-5-x-5-5-x-x-|
    |-----8-x-8-x-8-8-x-x-----5-x-5-x-5-5-x-x-|
    |-----7-x-7-x-7-7-x-x-----6-x-6-x-6-6-x-x-|
    |-----6-x-6-x-6-6-x-x-----5-x-5-x-5-5-x-x-|
    |-----7-x-7-x-7-7-x-x-----7-x-7-x-7-7-x-x-|
    |-0-0-----------------5-5-5-x-5-x-5-5-x-x-|
    
    E7#9…
  • Rhythm A:
    
     G               C5      D
    ---3------------------------------
    ---3------------------------3-----
    ---0--3-0-------5---5-----2---2-0-
    -0-0------0-----5-5---5-0---------
    -2-2--------2-0-3-----------------
    -3-3------------------------------
    
    Rhythm…
  • Rythm A: (clean)
     E-|-1---------------|-----------------|-1---------------|---------1-------|
     B-|-3---------------|-1---------------|-3---------------|-1-------3-------|
     G-|-2---------------|-0---------------|-2---------------|-0-------2-------|…
  • Lightly overdriven electric guitar. 
    Tuning (low to high): E A D G B E
    Key: Bb major
    
    This is how I think it goes..
    
    Intro:
    
       Bb5
    E ----------------------------------------------------------
    B ----------------------------------------------------------
    G…
  • Intro
    
    G|------------------------------------------------------------------------|
    D|------------------------------------------------------------------------|
    A|-12-/-0--0-0-0-0-0-0-----------------0-0-0-0-0-0-0-0---------7----------|
    E|---------------------0-0-0-0-0-0-0-0-----------------0-0-8-9----8-7-6---|
    
    
    Verse
    
    G|---------------------------------|
    D|-----------------2-2-------------|
    A|---------2-2---------3-3-2-2-----|
    E|-0-0-3-0-----3-2-------------3-3-|…
  • G|--------------------|
    D|--------------------|
    A|----------------0-2-|
    E|--0-0-3-0-3-0-3-----|
    ----------
    
    
    
    Intro/Verse
    				  x3
    G|---------------------------------|---------------------------------|
    D|---------------------------------|-----------------9-9-9-9-9-7-----|
    A|-5-5-5-5-5-5-5-5-----------------|-5-5-5-5-5-5-5-5-------------9-7-|
    E|-----------------7-7-7-7-7-7-7-7-|---------------------------------|
    
    
    Chorus
    					x2
    G|---------------------------------------|
    D|---------------------------------------|
    A|-5-5--8-8-7---------5-5--8-8-7---------|
    E|------------7-7-7-5------------7-7-7-9-|
    
    
    Bridge…
  • (1) *INTRO RIFF* 
    D|---------------|   
    A|------0--1-0---|  Play 4 times 
    E|-0--3--------3-| 
     
    (2) *CHORUS* 
     
    (Bass with guitar chords indicated) 
       A              F#              E              D 
    G|--------------|---------------|--------------|------------------|…
  • [INTRO] 
    (Guitar 1 plays riff, Guitar 2 plays muted power chords) 
     
       D                 A#                  D                 G       A 
    E|-----------------|-----------------|-----------------|-----------------| 
    B|-----------------|-----------------|-----------------|-----------------|…
  • Bass tab 
    
    
    Verse
    
    G|-----|--------------------------------|       |-------------------------------
    D|-----|----------------------------0-2-|Repeat |----------------------9-----0-2
    A|-1-3-|-2--2-2-0-0-0-0---------0-2-----|3…
  • RHYTHM A:
    |-2h3-3-3-3-3-3-3-2h3-3-3-3-3-3-3-------------------|
    |-3-3-3-3-3-3-3-3-3-3-3-3-3-3-3-3-------------------|
    |-0-0-0-0-0-0-0-0-0-0-0-0-0-0-0-0-------------------|
    |--------------------------------------0-3bss-p0----|
    |---------------------------------0-h2--------------|
    |---------------------------------------------------|
    
    |-2h3-3-3-3-3-3-3-2h3-3-3-3-3-3-3-3-5-3-------------|
    |-3-3-3-3-3-3-3-3-3-3-3-3-3-3-3-3-------6-3---------|
    |-0-0-0-0-0-0-0-0-0-0-0-0-0-0-0-0-------------------|
    |---------------------------------------------------|
    |---------------------------------------------------|
    |---------------------------------------------------|
    
    RHYTHM…
Наверх