Аккорды «Tesla»

Tesla
Tesla — американская хард-рок-группа созданная в Сакраменто, Калифорния в 1984. Группа продала 14 миллионов альбомов в США. Группа образовалась в 1984 в Сакраменто как City Kidd, и была переименована в Tesla в процессе записи своего первого альбома, 1986’s Mechanical Resonance. Оригинальный состав группы состоял из: вокалиста Jeff Keith, гитаристов Frank Hannon и Tommy Skeoch, басиста Brian Wheat, и барабанщика Troy Luccketta. Музыка коллектива часто характеризуется как хард-рок. Тексты песен… Читать полностью... Tesla — американская хард-рок-группа созданная в Сакраменто, Калифорния в 1984. Группа продала 14 миллионов альбомов в США. Группа образовалась в 1984 в Сакраменто как City Kidd, и была переименована в Tesla в процессе записи своего первого альбома, 1986’s Mechanical Resonance. Оригинальный состав группы состоял из: вокалиста Jeff Keith, гитаристов Frank Hannon и Tommy Skeoch, басиста Brian Wheat, и барабанщика Troy Luccketta. Музыка коллектива часто характеризуется как хард-рок. Тексты песен могут отклоняются от популярных тем в хард-роке, особенно в 1980-е. В начале своей карьеры Тесла провели тур с Дэвид Ли Рот, Def Leppard, и Poison, что неправильно отразилось на названии жанра группы «glam metal». Участникам группы это не нравилось. Альбом The Great Radio Controversy помог группе укрепить репутацию и увеличить количество фанов. Самой известной композицией альбома стала баллада «Love Song», хит их творчества в 1980-е гг. В 1990 г. Tesla выпустили Five Man Acoustical Jam — живой альбом, который состоял из акустических версий таких хитов, как «Comin' Atcha Live», «Gettin' Better», «Modern Day Cowboy» и «Love Song». Альбом также содержал несколько каверов, среди которых наиболее выделялась версия «Signs», хит 1971 года группы Five Man Electrical Band. В 1991 г. группа выпустила третий студийный альбом Psychotic Supper. Японское импортное переиздание 1998 года Psychotic Supper содержало три ранее невыпускавшиеся композиции, как «Rock the Nation», «I Ain’t Superstitious» и «Run Run Run». В 1994 г. «Тесла» выпустили четвёртый студийный альбом Bust a Nut. Японское импортное переиздание 1998 года Bust a Nut включало дополнительную композицию, кавер на песню 1973 г. «The Ocean» группы Led Zeppelin . После выпуска Bust a Nut, Томми Скьоч ушёл из группы. Он вернулся после реабилитации от наркотической зависимости, но через несколько месяцев ушёл снова. А спустя ещё несколько месяцев, участники группы разошлись окончательно. После паузы, которая длилась шесть лет, группа возобновила свою деятельность. «Тесла» сыграла на шоу The Arco Arena в Сакраменто, 25 октября 2000 года. Прошло немного времени и они записали двойной live альбом Replugged Live. В 2002 г. они были включены в Rock Never Stops Tour с другими рок-группами 1980-х гг. В 2002 г. ожидался альбом Standing Room Only, который в реальности стал только CD версией Replugged Live. В 2004 г. они записали свой пятый студийный альбом Into the Now, оказавшийся в «Billboard album chart» на 30-й строке. Альбом был хорошо встречен фанами и включён в Jimmy Kimmel Live!. 5 июля 2007 г. вышел кавер-альбом Real to Reel на двух CD. В конце августа Tesla анонсировали свой первый мировой тур за 16 лет, который начался в Австралии, Японии и Европе в октябре и ноябре 2007 г. В июне и июле 2008 г. Tesla сыграли на несколько шоу в Европе и Америке, включая Sweden Rock Festival, Graspop Metal Meeting и Rocklahoma. 11 августа 2008 г. было объявлено, что следующий альбом группы получит название Forever More и он должен будет выпущен 7 октября 2008 г. на лейбле Tesla Electric Company Recordings. Продюсером альбома стал Терри Томас, который был продюсером в Bust a Nut. «Forever More» дебютировал под номером 33 на The Billboard 200 chart. 30 сентября 2010 г. их студия полностью сгорела.10 мая 2011 г. «Тесла» сыграли на ралли для Sacramento Kings команды с National Basketball Association. В 2011 г. группа выпустила акустический альбом Twisted Wires and the Acoustic Sessions. В 2014 коллектив из Сакраменто возвращается с 14 новыми песнями и таким количеством энергии, которое удается генерировать не каждому дебютанту, не говоря уж о группе, которая существует более 20 лет. "Simplicity" – это седьмой порядковый студийный альбом TESLA, который завершает шестилетнюю творческую паузу, начавшуюся после выхода предыдущего альбома "Forever More". Отыграв в 2013 году серию концертов по США, группа вернулась в студию в начале 2014 года и вышла оттуда с новым альбомом, знаменующим возвращение TESLA к своим корням. Участники группы сами продюсировали новый материал, как это уже было с "Into The Now", успешным камбэк-альбомом 2014 года. Им помогал легендарный Том Зутаут (Tom Zutaut), который сотрудничал с группой при создании их лучших альбомов. Новый диск TESLA – это энергия от начала и до конца, и у каждой песни есть свои особенности и свое настроение. Первая песня с нового альбома, "Taste My Pain", была опубликована летом прошлого года через iTunes и Amazon. Данный трек был записан за двухдневную студийную сессию (5-6 июня 2013 года) в студии J Street Recorders в Сакраменто. По словам участников группы, "это тяжелая песня с мощным битом и характерными для TESLA режущими гитарами". Гитарист Фрэнк Хэннон (Frank Hannon) сказал по поводу "Simplicity": "Должен сказать, что новый альбом TESLA будет по-настоящему великолепным. Мы вошли в студию с куда более подготовленными песнями и идеями, чем при работе над 'Forevermore', а по стилю это чистое возвращение к корням TESLA. я твердо уверен, что вы, ребята, будете от него без ума!" Он добавил: "Первый трек будет называться 'MP3' – он начинается с интро, которое перерастает в тяжелый грув с текстами о технологии и о том, как нам не хватает простоты, виниловых альбомов, семейных ценностей… и рифф там просто охрененный! Затем мы переходим к рок-н-ролльной песне под названием 'Ricochet', в которой поется о чуваке, который обмочил тебе ботинки в уборной… Мне не терпится сыграть этот материал живьем!" Сведением "Simplicity" занимался легендарный Михаэль Вагенер (Michael Wagener), который прославился работой со SKID ROW, Оззи Осборном (Ozzy Osbourne), METALLICA, DOKKEN, ACCEPT, MÖTLEY CRÜE и др. Скрыть...
Популярные аккорды Tesla:
алфавиту | просмотрам | случайно
  • THE CHORDS:
    
               D                  Dsus4                D5/A                  G/B
          x x 0 2 3 2          x x 0 2 3 3          x 0 0 2 3 x          x 2 0 0 3 x
    
            A9sus4                  A…
  • e|---3-----3p2------2-------------------14p12p10----------2---3-3p2--------|
    B|--------------5-------3-3-3-----------------------------------------5----|
    G|-------------------------------------------------------------------------|
    D|---0--------------0-------------------------------------0----------------|
    A|-------------------------------------------------------------------------|
    E|-------------------------------------------------------------------------|…
  • Intro Lead Fill:
    E------------------------------------------
    B------------------------------------------
    G--12h14~--12~-----------------------------
    D----------------10h12p10h12p10~---10s5~---
    A------------------------------------------
    E------------------------------------------
    
    
    Lead…
  • * = Repeat section between double asterisks
    *
    
    Shuffle Feel
    
    +--------2-+---1-4-1-+-2-------+-2-------+---------+
    |*---2-5---|-2-------|---5-4-5-|---5-4-2-|---------|
    |*-3-------|---------|---------|---------|-5-3-2---|
    +----------+---------+---------+---------+-------5-+…
  • Solo
    ph=pinch harmonics
    v=vibrato
    b=bend
    p=pull off
    /=slide down
    h=hammer
    
    E|----5-5----5-5----5-5---------------------------------------|   
    B|----5-5----5-5----5-5---------------------------------------|   
    G|-7^-----7^-----7^-----7p5-----7p5-----ph7---7-5---7-5---7-5-|…
  • PART 1
    ------
    
    E---------------------------|---------------------------|
    B---------------------------|------------------------3--|
    G---0h2------0---2----------|---0h2------0---2-------2--|
    D---------4---------2h4-----|---------4---------2h4-----|
    A---5----------5---------5--|---5----------5------------|
    E---------------------------|---------------------------|
    
    E---------------------------|---------------------------------|
    B---------------------------|--0--------2--------3----------3-|
    G---0h2------0---2----------|-----0--------2--------2---------|
    D---------4---------2h4-----|--------0--------2--------2h4----|
    A---5----------5---------5--|---------------------------------|
    E---------------------------|---------------------------------|
    
    
    PART…
  • Intro/Verse:(acoustic)
    
    E----------------------------------------------------
    B----------------------------------------------------
    G--------0--------0---3s2---------0-2-0--------0-----
    D----0h2------0h2--------------------------0h2-------
    A----------------------------------------------------
    E-3--------3------------------1----------1-----------
    
    E---------------0--------------------------------------------------
    B----------3-------3-----------------------------------------------
    G-----2s4----4--------4s2-0-----------3s2------0--2-0---------0----
    D----------------------------2--0-------------------------0h2------
    A------------------------------------------------------------------
    E--0-------------------------------1-------1------------1----------
    
    Intro…
  • this song is played with capo in the 1st fret.
         Am      G      F      F
    |------0------1--------0------0|
    |------1------0--------0------0|
    |----2--------0--------2-----2-|
    |---2---------0------3------3--|
    |--0--------2------3-------3---|
    |---------3------1--------1----|…
Наверх