Аккорды «The Adicts»

The Adicts
Основной привлекательной чертой данного британского коллектива является имидж-участники группы крепко подсели на фильм Стэнли Кубрика «Заводной апельсин» и извлекли из него немало пользы для своего стильного внешнего вида. В музыкальном плане Adicts отталкивались от Ramones с влиянием земляков Buzzcocks, как это наиболее заметно на первых двух альбомах — ‘Songs Of Praise’ и ‘Sound Of Music’ Оригинальный состав группы включал в себя вокалиста Monkey (Keith Warren), барабанщика Kid Dee (Michael Davison),… Читать полностью... Основной привлекательной чертой данного британского коллектива является имидж-участники группы крепко подсели на фильм Стэнли Кубрика «Заводной апельсин» и извлекли из него немало пользы для своего стильного внешнего вида. В музыкальном плане Adicts отталкивались от Ramones с влиянием земляков Buzzcocks, как это наиболее заметно на первых двух альбомах — ‘Songs Of Praise’ и ‘Sound Of Music’ Оригинальный состав группы включал в себя вокалиста Monkey (Keith Warren), барабанщика Kid Dee (Michael Davison), гитариста Pete Davidson и басиста Mel Ellis Звукозаписывающие лейблы группа поначалу меняла как перчатки. И меняла даже не на водку, а на другие лейблы Дебютный ЕР lunch With The Adicts’ (1981) явился первым релизом независимой компании Dining Out, но затем последовало с полдюжины перемещений, порою в промежутке между двумя синглами. Но подобная нестабильность ни капли не отразилась на музыке — ранние работы Adicts комфортно осели в коллекциях как одни из наиболее добротных образцов шустрого британского поп-панка. Наибольший успех группе принесли два сингла — ‘Chinese Takeaway’ и ‘Bad Boy’ (в 1982 и 1983 годах соответственно), которые добились права фигурировать в Тор-10 независимых британских чартов, (Оба трэка можно услышать на сборнике ‘Totally Adicted’). Второй лонгплей даже загремел в национальные чарты на… 99 место. С каждым годом музыка труппы все более лишалась примоченного и драйвового панк-саунда, углубляясь в дебри пост-панка, и команда даже пыталась сменить название — на А.D.X. (вышло два ЕР в 1984 и 1985 годах) и The Fun Adicts. Однако в конце 80-х на фоне общего провала в британском панк-роке Adicts продолжали считаться хранителями настоящего духа сгинувшей панк-революции. Скрыть...
Популярные аккорды The Adicts:
алфавиту | просмотрам | случайно
  • G|--------------|X6
    D|--------------|
    A|-55-000-22-00-|
    E|--------------|
    
    G|-------------|X2
    D|-------------|
    A|-5---0-0-0-0-|
    E|-------------|
    
    G|--------------|X2
    D|--------------|
    A|-55-000-22-00-|
    E|--------------|
    
    G|---------------------------|
    D|---------------------------|
    A|-5555555555555555-00000000-|
    E|---------------------------|
    
    G|-------------------------------|
    D|-------------------------------|
    A|-5555-4444-3333-2222-1111-0000-|
    E|-------------------------------|
    
    G|---------|X2
    D|---------|
    A|-5--0--2-|
    E|---------|
    
    G|--------------|X6
    D|--------------|
    A|-55-000-22-00-|
    E|--------------|
    
    G|-------------|X2
    D|-------------|
    A|-5---0-0-0-0-|
    E|-------------|
    
    G|--------------|X2
    D|--------------|
    A|-55-000-22-00-|
    E|--------------|
    
    G|---------------------------|
    D|---------------------------|
    A|-5555555555555555-00000000-|
    E|---------------------------|
    
    G|-------------------------------|
    D|-------------------------------|
    A|-5555-4444-3333-2222-1111-0000-|
    E|-------------------------------|
    
    G|---------|X2
    D|---------|
    A|-5--0--2-|
    E|---------|
    
    G|----------|X8
    D|----------|
    A|-55555555-|
    E|----------|
    
    G|--------------|X6
    D|--------------|
    A|-55-000-22-00-|
    E|--------------|
    
    G|-------------|X2
    D|-------------|
    A|-5---0-0-0-0-|
    E|-------------|
    
    G|--------------|X2
    D|--------------|
    A|-55-000-22-00-|
    E|--------------|
    
    G|---------------------------|
    D|---------------------------|
    A|-5555555555555555-00000000-|
    E|---------------------------|
    
    G|-------------------------------|
    D|-------------------------------|
    A|-5555-4444-3333-2222-1111-0000-|
    E|-------------------------------|
    
    G|---------|X3
    D|---------|
    A|-5--0--2-|
    E|---------|…
  • Intro/Chorus
    
    e-----------------------------------------------------------------------|
    B-----------------------------------------------------------------------|
    G--------------------------------11-11-11-11-11-11-11-11-11-11----------|
    D--11-11-11-11-11-11-11-11-11-11-11-11-11-11-11-11-11-11-11-11--9-9-10--|
    A--11-11-11-11-11-11-11-11-11-11--9--9--9--9--9--9--9--9--9--9--9-9-10--|
    E--9--9--9--9--9--9--9--9--9--9---------------------------------7-7-8---|
    
    
    Verse…
  • Intro
    
    e-4-4----0-----0-2/5-5-5/9---------
    B----0-0---0-0-------------0-------
    G----------------------------------
    D----------------------------------
    A----------------------------------
    E----------------------------------
    
    Verse/…
  • THE ADICTS            /           /|   | /  /|                     
                         /    |   |  / |   |/  / |   Kick As* Song!
    STEAMROLLER      -------- |   | /     /|                    
                       /      |…
  • G|-----|X12
    D|-1---|
    A|---2-|
    E|-----|
    
    G|----------|X8
    D|-111------|
    A|-----222-|
    E|----------|
    
    G|-----------------------------|x2
    D|-111-----111-------0-1---0-1-|
    A|-----222-----222-2-----2-----|
    E|-----------------------------|
    
    G|-------|
    D|-111---|
    A|-----2-|
    E|-------|
    
    G|-----------------------------|
    D|-111-----111-------0-1---0-1-|
    A|-----222-----222-2-----2-----|
    E|-----------------------------|
    
    G|-------------------------------|
    D|-111-----111-------0-1---0-1-2-|
    A|-----222-----222-2-----2-------|
    E|-------------------------------|…
  • Intro/Verse
    
    e---------------------------------------------------------------------|
    B---------------------------------------------------------------------|
    G----------------------------------10-10-10-10-10-10--9-9-9-7-7-7-----|
    D---10-10-10-10-10-10--9-9-9-9-9-9-10-10-10-10-10-10--9-9-9-7-7-7-----|
    A---10-10-10-10-10-10--9-9-9-9-9-9-8--8--8--8--8--8---7-7-7-5-5-5-----|
    E---8---8--8--8--8--8--7-7-7-7-7-7------------------------------------|…
  • Intro
    G----------------------------------
    D----------------------------------
    A-5-5555-3-1-1111-3-3333-3-78-8887-
    E----------------------------------
    
    G--------------------------------------------------
    D--------------------------------------------------
    A-5-5555-3-1-1111-3-3333-3-78-88-78-88-78-88-78-88-
    E--------------------------------------------------
    
    Verse
    G-----------------------------
    D-----------------------------
    A-88888-88888-88888-----------
    E------------------88-8888----
    
    G-----------------------------
    D-5-555555--------------------
    A----------6-666666-----------
    E------------------6-66-66-66-
    
    G---------------------------
    D---------------------------
    A-88888-88888-88888---------
    E-----------------88-8888---
    
    G----------------------------
    D-5-555555-------------------
    A---------6-666666-----------
    E-----------------6-66-66-66-
    
    Intro
    
    Verse…
Наверх