Аккорды «The All-American Rejects»

The All-American Rejects
Тайсон Риттер (вокал, бас-гитара) и Ник Уилер (гитара, программирование) учились в школе, когда музыка завладела их мыслями. Молодым людям надоела скучная жизнь маленького городка. Естественно, городок Стиллвотер (переводится, кстати, как «Тихая вода») в штате Оклахома был не самым интересным местом на земле, поэтому ребята начали заниматься музыкой. В старших классах они оба были одержимы ею. Майк Кеннерти (гитара) и Крист Гелор (ударные) присоединились к Уиллеру и Риттеру в 2001 году, именно тогда… Читать полностью... Тайсон Риттер (вокал, бас-гитара) и Ник Уилер (гитара, программирование) учились в школе, когда музыка завладела их мыслями. Молодым людям надоела скучная жизнь маленького городка. Естественно, городок Стиллвотер (переводится, кстати, как «Тихая вода») в штате Оклахома был не самым интересным местом на земле, поэтому ребята начали заниматься музыкой. В старших классах они оба были одержимы ею. Майк Кеннерти (гитара) и Крист Гелор (ударные) присоединились к Уиллеру и Риттеру в 2001 году, именно тогда была официально образована группа The All-American Rejects. С помощью продюсера Тима О’Хэира (Sebadoh, Juliana Hatfield, Superdrag) в 2003 году был выпущен её дебютный диск, а пластинка Move Along увидела свет двумя годами позже. На ней поп-панк квартет продолжил источать энергию и мастерство, но вокалист Тайсон Риттер наконец-то перестал петь фальцетом, и в звучании группы появилось гораздо больше мужественности, чем прежде. Но, как и прошлый альбом, Move Along полон потенциальных радио-хитов, а его типичные для стиля эмо размышления о сумасшедшей любви и юношеской праздности кажутся скорее очаровательными, чем неприятными. В этой работе вы услышите скрипки, фортепиано, бонго, гитарные риффы в испанском стиле и гораздо более зрелые стихи. Новое звучание группы оказалось весьма хитовым и мгновенно запоминающимся. The All-American Rejects обращаются к року в песнях Night Drive, Dirty Little Secret и I'm Waiting, – гитары беспокойно грохочут, а вокальные гармонии Тайсона и Ника парят высоко в небесах. На треке Stab My Back слышна дисторшн-гитара, утопающая в звуках акустических гитар, громких голосов и унылого фортепиано. На альбоме Move Along есть много запоминающихся песен, в том числе заглавный трек и Change Your Mind. Подтверждая название пластинки, материал, в основном сохраняющий средний темп, слушается на одном дыхании. Аранжировки выполнены безупречно, хотя в большинстве своём они и повторяют друг друга. Все треки довольно короткие, а припевы идеально подходят для того, чтобы их распевали толпы на стадионах, что, несомненно, случится в самом ближайшем времени. Как и прежде, Ник Уиллер украшает песни немного странными для прямолинейного поп-панка элементами, например, звучанием ситара, банджо, теремина и электронными ритмами в стиле хип-хоп. Всё это существенно отличает творчество The All-American Rejects от песен Blink-182 или Good Charlotte. Одними из самых удачных треков альбома можно назвать насмешливый Stab My Back и Top of the World с элементами фламенко. Пусть этот альбом и не поразит вас своей глубиной, но уж точно зарядит энергией. Треки своими гитарными риффами и шквалом басов захватывают слушателя как капкан. Move Along создан для огромной аудитории, и каждая песня готова для радиоэфира. Полный рассказов об одиночестве, расставании и других типичных для поп-музыки проблемах, альбом не стремится изменять этим вечным темам. Группе The All-American Rejects комфортно в их собственном Эдемском саду, и они, видимо, боятся быть оттуда изгнанными. Другими словами, если вам нравится полный удачных мелодий мэйнстримовый рок 21 века, и вы готовы воспринимать рифмы вроде «любовь-морковь» и «ночь-прочь», то эта работа The All-American Rejects вас не разочарует. После прослушивания Move Along, на ум приходит только одно слово: потенциал. У этой группы есть его неисчерпаемые запасы. И если в дальнейшем она будет развивать своё поп-рок звучание, то, вполне возможно, в один прекрасный день станет великой. Альбомы: 2003 - The All-American Rejects 2005 - Move Along 2008 - When the World Comes Down EPs: 2001 - Same Girl, New Songs 2005 - The Bite Back EP 2008 - The All-American Rejects Soundcheck Vol. 1 2009 - Gives You Hell: The Remixes 2009 - The All-American Rejects Soundcheck Vol. 2 2009 - The Wind Blows: The Remixes Синглы: 2002 - «Swing, Swing» 2003 - «The Last Song» 2003 - «My Paper Heart» 2003 - «Time Stands Still» 2005 - «Dirty Little Secret» 2006 - «Move Along» 2006 - «It Ends Tonight» 2006 - «Top of the World» 2008 - «Gives You Hell» 2008 - «The Wind Blows» 2009 - «I Wanna» Скрыть...
Популярные аккорды The All-American Rejects:
алфавиту | просмотрам | случайно
  • |  Intro
    G ----------------------------------------------------------------|
    D ----------------------------------------------------------------|
    A ------------------------5-5-5-5-5-5-5-5---------------------3-3-|
    E --10/3-3-3-3-3-3-3-3-----------------------0-0-0-0-0-0-0-0------|
    >
    |
    G…
  • Intro
    
    G D Em C
    O-o-o
    G D Em C
    O-o-o
    
    Verse 1
     
    G  D    C  
    Him and her
    G   D    C
    Life is turned.
         G     D               C
    The day I knew you would leave
    G      D       C
    I can barely breath
    (C)               G
    Can…
  • Intro/Verse 1 (Transcribed to guitar)
    (This may be the last thing that I write...)
    
    E|-----------------20-21----|--21~--
    B|------21-18------------21-|-------
    G|:--18--------------------:|-------
    D|:------------------------:|-------
    A|--------------------------|-------
    E|--------------------------|-------
    
    Verse…
  • Standard Tuning
    
      PM ........  |
    e--------------|-------------------------------------
    b--------------|-------------------------------------
    g--------------|-----------------------2-----------4-
    d--2--2--2--2--|-2--------4------------2-----------2-
    a--2--2--2--2--|-2--------4------------0-----------0-
    E--0--0--0--0--|-0--------0------------0-----------0-…
  • Intro: Guitar 1  Do twice.
    e|-5-5-5-5-7-7-7-7-9-9-9-9-11-11-11-11-4-4-4-4-7-7-7-7-9-9-9-9-11-11-11-11---|
    B|---------------------------------------------------------------------------|
    G|---------------------------------------------------------------------------|
    D|---------------------------------------------------------------------------|
    A|---------------------------------------------------------------------------|
    E|---------------------------------------------------------------------------|
    
    e|-------9-9-11-11-0-0-0-9-9-11-11-5-5-5-5-7-7-7-7-9-9-9-9-11-11-11-11-------|
    B|-7-7-7---------------------------------------------------------------------|
    G|---------------------------------------------------------------------------|
    D|---------------------------------------------------------------------------|
    A|---------------------------------------------------------------------------|
    E|---------------------------------------------------------------------------|
    Intro:…
  • intro
    guitar:1
    E|--------------------------------------------------------|-------------------
    B|--------------------------------------------------------|-------------------
    G|----7-----7-----------------4-----4---------------------|-------------------
    D|----7-----7-----7-----7-----4-----4-----5-----5---------|2x-----------------
    A|----5-----5-----7-----7-----2-----2-----5-----5---------|-------------------
    e|----------------5-----5-----------------3-----3---------|-------------------
    
    guitar:…
  • Intro      
    e |-000-0-0-00-0-0-0-00-0-0-0-00-0-0-0---|
    b |-000-0-0-00-0-0-0-00-0-0-0-00-0-0-0---|
    g |-111-1-1-11-1-1-1-11-1-1-1-11-1-1-1-Repeatx2-|
    d |-222-2-2-22-2-2-2-22-2-2-2-22-2-2-2---|
    a |-222-2-2-22-2-2-2-22-2-2-2-22-2-2-2---|
    e…
  • Intro - Picking Part
    e|----------------------------------------------|
    B|------0------0------0------0------------------|
    G|-------2------2------2------2-----------------|
    D|----2------2------2------2--------------------|
    A|--0-------------------------------------------|
    E|----------------------------------------------|
    
    e|----------------------------------------------|
    B|------0------0------0------0------------------|
    G|----2---2------2------2------2----------------|
    D|--0--------0------0------0--------------------|
    A|----------------------------------------------|
    E|----------------------------------------------|
    O.K.…
  • Intro:
    
    e |---------------------------    |---|
    B |---------------------------    |---|
    G |--------------7------------ x2 |-7-| x7
    D |-7------------7-(let ring)-    |-7-|
    A |-7-(let ring)-5------------    |-5-|
    E |-5-------------------------…
  • Chords
    Cm7- 032000
    
    Intro/Chorus
                       C                  Cm7       
    Please just don't Play with me, my paper heart will bleed
          F                                       
    this wait for destiny won't do, be…
  • INTRO:
    e|---------------------------------------------------------------------------|
    B|-0~------------------------------------------------------------------------|
    G|-0~---------99xxx-77xxx-77xxx-------9xxx-7xxxx-777-------------------------|
    D|-0~---77xxx-99xxx-77xxx-77xxx-77xxx-9xxx-7xxxx-777-------------------------|
    A|-0~---77xxx-77xxx-55xxx-55xxx-77xxx-7xxx-5xxxx-555-------------------------|
    E|-5~---55xxx-------------------55xxx----------------------------------------|
    
    VERSE:
    e|---------------------------------------------------------------------------|
    B|---------------------------------------------------------------------------|
    G|-----99x-77x-77-77777777/99-99---------------------------------------------|
    D|-77x-99x-77x-77-77777777/99-99---------------------------------------------|
    A|-77x-77x-55x-55-55555555/77-77---------------------------------------------|
    E|-55x-----------------------------------------------------------------------|
    P.M.…
  • Intro: A/G }x4  
     
    Verse: 
     A      E                   F#m  
    Let me know that I've done wrong 
              D  
    When I've known this all along 
     A    E                F#m  
    I go around a time or two 
            D  
    Just…
  • Intro: G  D/F#  Em  C }x4
     
    Verse 1: 
     G                     D/F#  
    Days swiftly come and go. 
                    Em  
    I'm dreaming of her 
                        C  
    She's seeing other guys 
                   G  
    Emotions…
  • Intro: Am  G  F  G  
      
    Verse: 
     Am  
    Your subtleties 
     F  
    They strangle me 
     Dm              Em  
    I can't explain myself at all. 
     Am  
    And all that wants 
     F  
    And all that needs 
     Dm                  Em…
Наверх