Аккорды «The Aquabats»

The Aquabats
Группа была образованна в сентябре 1994 года, с тех пор состав не претерпел никаких изменений и это не удивительно. Как можно легко понять, глядя на фотографии группы, её участники обладают сверх способностями (сверхпроводимостью) и не склонны к старению. В короткие моменты передышки между спасением мира и помощи супермену, группа сочиняет и записывает песни. Стиль можно охарактеризовать как «Кто-нибудь, скажите им правду!». Так же эту группу можно отметить тем, что в ней играл Трэвис Баркер, нынешний… Читать полностью... Группа была образованна в сентябре 1994 года, с тех пор состав не претерпел никаких изменений и это не удивительно. Как можно легко понять, глядя на фотографии группы, её участники обладают сверх способностями (сверхпроводимостью) и не склонны к старению. В короткие моменты передышки между спасением мира и помощи супермену, группа сочиняет и записывает песни. Стиль можно охарактеризовать как «Кто-нибудь, скажите им правду!». Так же эту группу можно отметить тем, что в ней играл Трэвис Баркер, нынешний барабанщик blink-182, получивший широкую известность и любовь фанатов по всему миру именно после присоединения к ней. Скрыть...

Теги:

Популярные аккорды The Aquabats:
алфавиту | просмотрам | случайно
  • (VERSE CHORDS)
     A            G
    Hey big fella I see you're outta jail
     A                   G
    You got a brand new hat
     A                   G
    You're walking big You're walking tall
     A                            G
    With your…
  • (Verse Chords)
    C             G              C
    Everyday when I get in my car 
    G
    It's a Honda, you know 
    C              G                  C
    I sit on down but I don't get too far 
    G
    You wanna know why? 
    C…
  • Intro
    E|------------------------------------------------|
    B|-----3-----2-------3-------5--3--2--------------|
    G|-------2-----2-------2--------------------------| 
    D|--0-------0-----0-------0-----------------------|
    A|------------------------------------------------|
    E|------------------------------------------------|
    
    3…
  • This is the verse, same for all
    e|5(5x)-----4(5x)---  5(5x)----10(4x)----------------------------------------|
    B|5-(5x)----5-(5x)--- 5-(5-----10(4x)----------------------------------------|x)
    G|6-(5x)----6-(5x)----6-(5x)---11(4x)----------------------------------------|
    D|---------------------------------------------------------------------------|
    A|---------------------------------------------------------------------------|
    E|---------------------------------------------------------------------------|
    CHORUS
    e|---------------------------------------------------------------------------|
    B|---------------------------------------------------------------------------|
    G|---------------------------------------------------------------------------|
    D|-------101010101010--------------------------------------------------------|
    A|888888-888888-------666666-888888------------------------------------------|
    E|666666--------------444444-666666------------------------------------------|
    chorus…
  • Main Riff
    
    1)--------------------|
    2)--------------------|
    3)--------------------|
    4)7777-5555-3333-7777-|
    5)7777-5555-3333-7777-|
    6)5555-3333-1111-5555-|
    
    Bridge
    
    1)------|
    2)------|
    3)------|
    4)----5-|
    5)----5-|
    6)5-5-5
    
    Thats…
  • G:-------------------------------------/--------------------------
    D:--------------55---------------3-0/---------------------------------
    A:-----77-66----------55-44------/----------------------------------------
    E:-88--------------66---------------/---------------------------------…
  • G:--------------------------22--------------------------------------|---------
    ---------------------------------
    
    D:--------22------0--44-------44---------------------------------|-2222-------
    --------------------------
    
    A:-0-44------44--------------------0--44-------22-0-----------|---------------
    -------------------------
    
    E:----------------------------------------------44---------44-22--|-----------
    ------------------------------
    
    
    G:---------------------------------------------------------------
    D:-----2222----------------22-0-----------------------------
    A:-00----------0-44--------------44-22---------------------
    E:-----------------------44-------------------------------------
    
    
    G:---------------------------------------------------------------
    D:-4X44444444---------------------------------------------
    A:---------------------------------------------------------------
    E:---------------------------------------------------------------…
Наверх