Аккорды «The Ataris»

The Ataris
Группа «Ataris» из городка Андерсон, штат Индиана, образовалась в 1994 году. Ее первоначальный состав включал в себя всего двух человек, Криса Ро и Джэйсина Томасона, а функции ударника выполняла драм-машина. Пока шли поиски живого барабанщика, парни не тратили время зря, а, запершись в спальне Криса, записывали на четырехдорожечник свои демки. Как-то раз Ро довелось побывать на концерте «Vandals», и он подсунул свои пленки какому-то роуди этой группы. Записи очень понравились одному из «вандалов»,… Читать полностью... Группа «Ataris» из городка Андерсон, штат Индиана, образовалась в 1994 году. Ее первоначальный состав включал в себя всего двух человек, Криса Ро и Джэйсина Томасона, а функции ударника выполняла драм-машина. Пока шли поиски живого барабанщика, парни не тратили время зря, а, запершись в спальне Криса, записывали на четырехдорожечник свои демки. Как-то раз Ро довелось побывать на концерте «Vandals», и он подсунул свои пленки какому-то роуди этой группы. Записи очень понравились одному из «вандалов», Джо Эскаланте, и с его помощью уже через несколько недель «Ataris» получили приглашение от «Kung Fu Records». После подписания нужных бумаг лейбл организовал поиски ударника, и в итоге эту вакансию занял Деррик Плаурд. В 1997-м вышел дебютный полнометражник, «Anywhere But Here», после чего Ро со своими коллегами перебрался в Калифорнию. Там к «Ataris» присоединился басист Марко 72, а Томасон вскоре вернулся домой. Осенью 1997-го команда провела небольшой тур, после чего оригинальный состав был распущен, а Крис набрал себе новых рекрутов в лице Майка Дэйвенпорта (бас), Криса Кнэппа (ударные) и Марко Пена (гитара). Последний, правда пробыл в группе недолго и уступил свое место Патрику Райли. Популярность команды в панковских кругах начала потихоньку расти после выхода EP «Look Forward to Failure», где на одном из треков поприсутствовал Марк Хоппус («Blink-182»). Однако широкую известность «Ataris» получили только в 1999 году, когда на свет появился «Blue Skies, Broken Hearts…Next 12 Exits». Этот альбом, содержавший поп-панковый гимн «San Dimas High School Football Rules», был признан поклонниками группы лучшим ее творением. Почти сразу после релиза ушел Райли, а в команду вернулся Марко Пена. В 2000 году после туров в компании с «MxPx» и «Blink-182» коллектив записал сплит с израильской бандой «Useless ID», а также принял участие в создании трибьютного альбома «Punk Goes Metal», исполнив кавер «Skid Row» «I Remember You». В 2001-м вышел третий лонгплей, «End Is Forever». Хотя альбом записывался в дикой спешке, и результат не понравился Ро, многие фаны сочли работу вполне достойной. После того, как Марко Пена заменил Джон Коллура, «Ataris» заключили мажорный контракт с «Columbia Records». Изданный этим лейблом альбом «So Long, Astoria» дал группе успех на мэйнстрим-сцене. Среди удачных синглов значились «In This Diary», «The Saddest Song» и кавер Дона Хенли «The Boys of Summer». В том же году коллектив записал акустическую версию «Eight Of Nine» для сборника «Punk Goes Acoustic», а также песню «Rock’n’Roll High School» для трибьюта «Ramones». В 2004-м «Ataris» исполнили композицию «The Night The Lights Went Out In NYC», прозвучавшую в фильме «Spider-Man 2», и выпустили концертник «Live at the Metro». Под конец года ушли Дэйвенпорт и Кнэпп, но не прошло и двух месяцев как в состав были официально введены пять человек: Шон Хансен (бас), Шэйн Чиклес (ударные), Боб Хоаг (клавишные), Пол Карабелло (гитара, вокал) и Ангус Кук (виолончель). Данная конфигурация приступила к записи альбома с рабочим названием «Welcome the Night», но возникшие проблемы с лейблом поставили под вопрос появление этого диска на свет. Скрыть...
Популярные аккорды The Ataris:
алфавиту | просмотрам | случайно
  • Intro: 
    G|---------------------------------|
    D|---------------------------------|
    A|--5----5-------------------------|
    E|-------------7------9-------7----|
    
    Verse:
    G|-----------------------------------------|
    D|-----------------------------------------|
    A|-5>--------------------------------------|
    E|-----------7>--------9>----------7>------|
    
    Chorus:
    G|-------------------------------------------------|
    D|-------------------------------------------------|
    A|-55555555----------------------------------------|
    E|-----------77777777---99999999---77777777--------|
    
    Bridge:…
  • Tuning: 1/2 step down (Eb, Ab, Db, Gb)
    
    (Guitar intro, bass comes in at 0:11)
    
    Verse
    
    Gb|------------------------------------------------------------------------|
    Db|-------------------------------00000000-----------------------00000000--|
    Ab|---------------------00000000-------------------------------------------|
    Eb|-22222222--00000000-----------------------22222222--00000000------------|
    
    Pre-Chorus
    
    Gb|---------------------|
    Db|---------------------|
    Ab|-22222222--55555555--|
    Eb|---------------------|
    
    Chorus
    Gb|------------------------------------------------------------------------|
    Db|------------------------------------------------------------------------|
    Ab|-----------77777777------------55555555------------77777777--55555555---|
    Eb|-22222222------------55555555------------22222222-----------------------|
    
    Bridge…
  • D
    Today I'm missing something
    B
    In this small New England town
    G
    Here's to you my best friend
    A
    I just wanted to say that I miss having you around
    D
    I'm starring at your pictures
    B
    And dreaming that I could hold your hand
    G
    We…
  • -----4-5-4 0---2-0----4-5-4-0---7-5----2-4-5--9-10-9-5---7-5----------|
    -------------2----------------2------------------------7-----0-2-3----|
    ----------------------------------------------------------------------|
    ----------------------------------------------------------------------|
    ----------------------------------------------------------------------|
    ----------------------------------------------------------------------|
    intro…
  • (Verse 1)
    
                       C#
    I'm really fucking sick
                 Bb
    Of Beck and 311
                F
    And Marylin Manson
                         F#                G#
    I wish someone would break his fucking neck
    
    (Verse 2)…
  • Intro
    e|------------------------------------------------------|
    B|---------------------5-7-5-----3-5-3------------------|
    G|-55555555-99999999---------------------------------5--|
    D|-55555555-99999999-7-------7-5-------5--3---6666-5-5--|
    A|-33333333-77777777-7-------7-5-------5--3---6666-5-3--|
    E|-------------------5-------5-3-------3--1---4444-3----|
    
    Verse
    e|------------------------------------------------------|
    B|------------------------------------------------------|
    G|-55555555-99999999------------------------------------|
    D|-55555555-99999999-7777-5555-3333-6666-5--------------|
    A|-33333333-77777777-7777-5555-3333-6666-5--------------|
    E|-------------------5555-3333-1111-4444-3--------------|
    pm…
  • Standard tuning
    
    -----------------------------|------------------------------------------------
    ---14---14----15----14h15-14-|-14----14----17----14h15--14--------------------
    -----14----14----14----------|----14----14----14------------------------------
    -----------------------------|------------------------------------------------
    -----------------------------|------------------------------------------------
    -----------------------------|------------------------------------------------…
  • Intro:
    
    e ----------------------------
    b ----------------------------
    g -5--4--0--5--4--0--5--4--0--
    d -5--5--5--5--5--5--5--5--5--
    a -3--3--3--3--3--3--3--3--3--
    E ----------------------------
    
    which is played over these…
  • Intro:
    E|---123--- 
    
    Verse 
    G|-------------7---7-----9---9---5---4----| 
    D|---5---5--------------------------------| 
    A|---------4/5---5---5/7---7---3---2------|       
    E|-3---3----------------------------------| 
    
    G|-------------7---7---4---4---5---4---|…
  • Tuning: Standard: (E A D G B E) use distortion
    -----------------------------------------------------------------
    Intro
    
    Gtr1
    e|----10----------------10----------------------
    B|------10-----------10-----10-----------10-----
    G|--------12-11--12------------12-11--12--------
    D|----------------------------------------------
    A|----------------------------------------------
    E|----------------------------------------------…
  • Tuning: standard
    	intro/chorus
    e|---------------------------------------------------------------------------|
    B|---------------------------------------------------------------------------|
    G|--------5------7------3----------------------------------------------------|
    D|-3------5-x12--7-x12--3-x12------------------------------------------------|
    A|-3-x12--3------5------1----------------------------------------------------|
    E|-1-------------------------------------------------------------------------|
    	verse
    e|---------------------------------------------------------------------------|
    B|---------------------------------------------------------------------------|
    G|--------5------7------3----------------------------------------------------|
    D|-3------5-x12--7-x12--3-x12------------------------------------------------|
    A|-3-x12--3------5------1----------------------------------------------------|
    E|-1-------------------------------------------------------------------------|
    pm............................
    	interlude…
  • Tuning:EADG
    
    INTRO
    G|----------------------------------------------------------------|
    D|----------------------------------------------------------------|
    A|-5-5-5-5-5-5-5-5------------------------------------------------|
    E|-----------------3-3-3-3-3-3-3-3-7-7-7-7-7-7-7-7-5-5-5-5-5-5-5-5|
    
    G|----------------------------------------------------------------|
    D|----------------------------------------------------------------|
    A|-5-5-5-5-5-5-5-5------------------------------------------------|
    E|-----------------3-3-3-3-3-3-3-3-7-7-7-7-7-7-7-7-7-7-7-7-5-5-5-5|
    
    VERSE…
  • Riff#1
    E:-3----3----
    A:---33---33-
    D:-----------
    G:-----------
    
    Riff#2
    E:-3----------
    A:---33-55-33-
    D:------------
    G:------------
    
    Riff#3
    E:-3333-5555-7777-8888-
    A:---------------------
    D:---------------------
    G:---------------------
    
    Riff#4
    E:-3333-5555-7777-8888-7----8----
    A:-------------------------------
    D:-------------------------------
    G:-------------------------------
    
    Riff#5
    E:-3333-5555-7777-8888-3----5----
    A:-------------------------------
    D:-------------------------------
    G:-------------------------------
    
    Riff#6
    E:-5555-3333-
    A:-----------
    D:-----------
    G:-----------
    
    Order
    Riff#1…
  • Intro:(Acoustic)
    e|--------------------------------------------------------------------|
    B|--------------------------------------------------------------------|
    G|--------------------6--------------4--------------------------------|
    D|2-------------------6--------------4---------------4---6-----7------|
    A|2-------------------4--------------2---------------4---6-----7------|
    E|0--------------------------------------------------2---4-----5------|
    Your…
  • Intro and verse x6
              G|---------------------------------------------------------------------------|
              D|---------------------------------------------------------------------------|
              A|------------33333333-44444444----------------------------------------------|…
  • Tuning:		Standard
    
    
    e|---------------------------------------------------------------------------|
    B|--------------------------------------------------5------------------------|
    G|-----------1--------------5---------------------6-6------------------------|
    D|---------2-2--------------6---------------------7-6------------------------|
    A|---------2-2--------------6---------------------7-4------------------------|
    E|-----------0--------------4---------------------5--------------------------|…
  • Intro:  Guitar 1   (last two chords strummed 2nd time) 
    e|--------------------------------------------------------------| 
    B|--------------------------------------------------------------| 
    G|-44-44--44-44----------------44-44--44-44---------------------|…
  • Intro: X1  ^ means full measure.  * means half measure.  ~ means let chord ring.
    e|--------------------------------------------------------------------|
    B|-------7-------------------7-------------------1--------------------|
    G|--9----9----6----2----9----9----6----4----2----2--------------------|
    D|--9----9----6----2----9----9----6----4----2----2--------------------|
    A|--7----6----4----0----7----6----4----2----0----0--------------------|
    E|--------------------------------------------------------------------|…
  • Intro
       Gtr. 1
    e|----------------------------------------------------------|
    B|----------------------------------------------------------|
    G|--5~~~--5-4--------------5-5-5-5-5-5-5-5-5-5-5-5-5-5-5-5--|
    D|--5~~~--5-4-2-3~~~-5~~~--5-5-5-5-5-5-5-5-5-5-5-5-5-5-5-5--|
    A|--3~~~--3-2-2-3~~~-5~~~--3-3-3-3-3-3-3-3-3-3-3-3-3-3-3-3--|
    E|------------0-1~~~-3~~~-----------------------------------|
    
    e|-----------------------------------|
    B|-----------------------------------|
    G|-----------------------------------|
    D|--3-3-3-3-3-3-3-3-5-5-5-5-5-5-5-5--|
    A|--3-3-3-3-3-3-3-3-5-5-5-5-5-5-5-5--|
    E|--1-1-1-1-1-1-1-1-3-3-3-3-3-3-3-3--|…
  • Bass Intro: x2
    G------------------------------------------------------------------------------|
    D------------------------------------------------------------------------------|
    A--------777777--999999--555555----------777777------------555555--------------|
    E-555555-------------------------555555-----------222222-----------------------|
    
    VERSE…
  • Intro
    e|---------------------------------------------------------------------------| 
    B|---------------------------------------------------------------------------| 
    G|--9-9-9-9-11-11-11-13-13-13-9-9-9-13-13-11-11-11/-13/14-/-9-9-14-14-14-14--|…
  • Intro
    After the bass riff
    e-------------------------------
    B---17-----17----17----17-17----
    G-------16----16---16----16-16--
    D-------------------------------
    A-------------------------------
    E-------------------------------
    
    *verse*
    e---------------------------------------------------------
    B---------------------------------------------------------
    G--------------------------------------------------11111--
    D--77777--66666--44444--66666--77777--66666--4444--22222--x4
    A--00000--77777--00000--77777--00000--77777--0000--22222--
    E--------------------------------------------------00000--
    
    *chorus*…
  • Intro:  Guitar 1  (2x)
    e|----------------------------------------------------------------------------|
    B|----------------------------------------------------------------------------|
    G|6-6-6-6-6-6-6-6-6-6-6-6-6-6-6-6---------------------------------------------|
    D|6-6-6-6-6-6-6-6-6-6-6-6-6-6-6-6-7-7-7-7-7-7-7-7-7-7-7-7-7-7-7-7-------------|
    A|4-4-4-4-4-4-4-4-4-4-4-4-4-4-4-4-7-7-7-7-7-7-7-7-7-7-7-7-7-7-7-7-------------|
    E|--------------------------------5-5-5-5-5-5-5-5-5-5-5-5-5-5-5-5-------------|
    
    Intro:…
  • Very simple, but very cool.
    just like all the other ataris songs.
    
    1)-------------------------------------------------------------
    2)-------------------------------------------------------------
    3)-------------------------------------------------------------
    4)--------------------7---7---------------7---7----------------
    5)-----------77777777-5-7-5------77777777-5-7-5----------------
    6)-----------55555555---5--------55555555---5------------------…
  • Intro:  Acoustic 
    e|3------------------------------------3--------------------------------| 
    B|0-----------------------3------------0--------------------------------| 
    G|0-----------------------0------------0--------------------------------|…
  • Tuning: Standard
    
      Intro: 
    e|--------------------------------------------------------------|
    B|--------------------------------------------------------------|
    G|-X-X-X-X--11-11-11--6-6-6--8-8-8------------------------------|
    D|-X-X-X-X--11-11-11--6-6-6--8-8-8--8-8-8--99999999999--11-11---|…
  • Intro
    
    I-----------------------------------------------------------------------I
    I------------------------------------------------------------------6----I
    I---------------------------------------------------2--------------7----I
    I--7-------------6-------------------------------4-----------------7----I
    I--7-------------7------------------------------------------------------I
    I--5-------------4-----------------------------2------------------------I…
  • Intro:
    e|-----|-7---|-------------------------|-------------------------|
    B|-----|-----|-------------------------|-------------------------|
    G|-4---|-4---|-4-----4-4-4-----------4-|-4-----4-4-4-----------4-|
    D|-----|-----|-4-4-4-4-4-4-4-4-4-4-4-4-|-4-4-4-4-4-4-4-4-4-4-4-4-|
    A|-2---|-----|-2-2-2-2-2-2-2-2-2-2-2-2-|-2-2-2-2-2-2-2-2-2-2-2-2-|
    E|-----|-----|-------------------------|-------------------------|…
  • Tuning: Standard
    
    **During the chorus the C is played like this: x320033 **
    
    
      Intro
    e|-------------------|
    B|-------------------|
    G|-------------------|
    D|-444-5555-7777-----|
    A|-222-3333-5555-----|
    E|-------------------|…
  • Intro/Verse
              G:---------------------------------------------------------------
              D:---------------------------------------------------------------
              A:-5>------------------------------------------------------------…
  • Verse:
    Guitar 1 
    e|---------------------------------------------------------|
    B|---------------------------------------------------------|
    G|--7---------------------12-----76-76-76-76--------12-|
    D|--7------4---5----------12-----76-76-76-76-4--5---12-|
    A|--5------4---5----------10-----54-54-54-54-4--5---10-|
    E|---------2---3---------------------------------2--3------|
    
    Guitar…
  • Intro:  
    e|---------------------------------------------------------------------------| 
    B|---------------------------------------------------------------------------| 
    G|7-7-7-7-7-7-7-7-----------------4-4-4-4-4-4-4-4----------------------------|…
  • CHORDS USED
    
    
       F5| C5 | C#5 | G#5 | G5 | D#5 | A#5 | E5+ |
    e|---|----|-----|-----|----|-----|-----|-----|
    B|---|----|-----|-----|----|-----|-----|-----|
    G|---|-5--|--6--|-----|----|--8--|-----|--9--|
    D|-3-|-5--|--6--|--6--|-5--|--8--|--8--|--9--|
    A|-3-|-3--|--4--|--6--|-5--|--6--|--8--|--7--|
    E|-1-|----|-----|--4--|-3--|-----|--6--|-----|
    
    nb.…
  • Intro: 
    e------------------|
    B------------------|
    G--7---7---6---6---|
    D----7---7---7---7-|
    A------------------|
    E------------------|
    
    Verse: (palm muted) 
    e---------- -------------------------------------------------------|
    B------------------------------------------------------------------|
    G--7-7-7-7-7-7-7-7-7-7-7-7-7-7-7-7---------------------------------|
    D--7-7-7-7-7-7-7-7-7-7-7-7-7-7-7-7-5-5-5-5-5-5-5-5-5-5-5-5-5-5-5-5-|
    A--5-5-5-5-5-5-5-5-5-5-5-5-5-5-5-5-5-5-5-5-5-5-5-5-5-5-5-5-5-5-5-5-|
    E----------------------------------3-3-3-3-3-3-3-3-3-3-3-3-3-3-3-3-|
    
    
    Prechorus:
    e-------------------------------------|
    B-------------------------------------|
    G------------------7~-----------------|
    D--7~--------------5~--------------7~-|…
  • Verse 1: All guitar
              
    Verse 2:
              G}---------------------------------------------------------------------
              D}---------------------------------------------------------------------
              A}----------------------------3-3-3-2-2-2------------------------------…
  • Drums come in first
        Verse
    G-|---------------------------------------------|
    D-|---------------------------------------------|
    A-|-55555555-55555555---------------------------|
    E-|----------------------22222222-22222222------|
    
    G-|---------------------------------------------|
    D-|---------------------------------------------|
    A-|---------------------------------------------|
    E-|-33333333-33333333----55555555-55555555------|…
  • Intro:
              G|---------------------------------------------------------------------
              D|---------------------------------------------------------------------
              A|-------------------------------7-7-6-4-7-7-9-7-----------------------…
  • Intro:  Guitar 2
    e|---------------------------------------------------------------------------|
    B|---------------------------------------------------------------------------|
    G|---------9--7--6-6----9--7--6-6----9--7--6-6----4--6--6--7--9-9-9-9-9------|
    D|--7~~~---x--x--x-x-7--x--x--x-x-7--x--x--x-x-7--x--x--x--x--x-x-x-x-x------|
    A|--7~~~---7--5--4-4-7--7--5--4-4-7--7--5--4-4-7--2--4--4--5--7-7-7-7-7------|
    E|--5~~~-------------5------------5------------5-----------------------------|
    
    Intro…
  • INTRO:  VERSE: 
    e|-----|--------------------------------------------------------------------------| 
    B|-----|--------------------------------------------------------------------------| 
    G|-----|-88888888-55555555------55-------------88888888-55555555------------------|…
  • C5sus2            G5       D/F#
    So long my friend,dont say goodbye
    Just give me one last kiss, beneath this glowing sky
    We'll go walking in the park, and hang out in the rain
    
     G5                       D/F#
    tell a joke and…
  • INTRO 2x
    e|-------------------------------------------------------
    B|-------------------------------------------------------
    G|-777777-77-7777----------------------------------------
    D|-777777-77-7777----------------------------------------
    A|-555555-55-5555----------------------------------------
    E|-------------------------------------------------------
    
    VERSE…
  • INTRO
    
    e-X-----X----X----X-----]
    B-X-----X----X----X-----]
    G-7-----7----7----2-----]
    D-7-X8--7-X8-7-X8-2-X8--]
    A-5-----9----5----0-----]
    E-X-----X----X----X-----]
    
    VERSE
    
    e-X-----X-----X-----X-----]
    B-X-----X-----X-----X-----]
    G-7-----9-----4-----2-----]
    D-7-X16-9-X16-4-X16-2-X16-]…
Наверх