Аккорды «The Black Keys»

The Black Keys
Тандем The Black Keys, созданный на заре 21 века как раз к 50-летнему юбилею рок-н-ролла, пришел в музыку со своим особым, рафинированно-варварским вариантом блюз-рока. В то время как гитарные группы начали отходить на второй план, оттираемые поп-звездами и электронщиками, эти двое самоучек из Огайо, вопреки здравому смыслу и финансовым раскладам, упорно шли против течения. В самых заурядных домашних условиях Dan Auerbach и Patrick Carney создавали завораживающий своей дикой, первозданной энергией… Читать полностью... Тандем The Black Keys, созданный на заре 21 века как раз к 50-летнему юбилею рок-н-ролла, пришел в музыку со своим особым, рафинированно-варварским вариантом блюз-рока. В то время как гитарные группы начали отходить на второй план, оттираемые поп-звездами и электронщиками, эти двое самоучек из Огайо, вопреки здравому смыслу и финансовым раскладам, упорно шли против течения. В самых заурядных домашних условиях Dan Auerbach и Patrick Carney создавали завораживающий своей дикой, первозданной энергией микс блюза, гараж-рока и рок-н-ролла. Хотя критики заметили The Black Keys сразу, команде понадобилось 5 лет, чтобы вызывать интерес у публики, и еще пять – чтобы добиться признания высочайших авторитетов. Так что первые строки хит-парадов и трофейные Grammy – то, о чем десять лет назад они не смели даже мечтать, – сегодня выглядят вполне заслуженно. Дэниель Куайн Ауэрбах (Daniel Quine Auerbach) родился 14 мая 1979 года в г. Акрон, Огайо. Хотя его родители профессионально не занимались музыкой (мать преподавала французский язык, отец торговал антиквариатом), у них была большая коллекция виниловых пластинок, которые Дэн заслушивал до дыр. Помимо родительской фонотеки, огромное влияние на формирование его музыкальных вкусов оказали братья его матери, участвовавшие в разных блуграс-группах. Самый знаменитый его родственник, рок-гитарист Роберт Куин (Robert Quine), игравший с Томом Уэйтсом (Tom Waits), Лу Ридом (Lou Reed), Брайаном Ино (Brian Eno) и другими музыкантами, прославился своими новаторскими гитарными соло. Свою юность Дэн называет самой обыкновенной: как все, играл в американский футбол, правда, был не рядовым игроком, а капитаном школьной команды, как все курил марихуану, как все, слушал рок и играл на гитаре. Правда, никому из его товарищей не пришло в голову в один прекрасный день, наслушавшись легендарного американского блюзмена Джуниора Кимбро (Junior Kimbrough), целыми днями не выпускать из рук гитару и пытаться повторять все его приемы. Среди других исполнителей, заставивших его связать свою жизнь с музыкой, Дэн называет Роберта Джонсона, Кларенса Уайта и RZA из группы Wu-Tang Clan. Первым проектом Дэна Ауэрбаха, в котором он испытывал свои таланты, стала блюзовая группа The Barnburners, которая отметилась в истории одним мини-альбомом "The Rawboogie" и серией концертов на севере Огайо. Эта затея оказалась недолговечной, и в 2001 году Ауэрбах решил предпринять новую попытку. На этот раз его напарником стал давний знакомый Патрик Джей Карни (Patrick J. Carney). Патрик (он родился 15 апреля 1980 года в Акроне, Огайо) знал Дэна с детства, у них было много общих друзей, с которыми они иногда играли в футбол, хотя у каждого была своя компания. Впрочем, Патрик мало с кем водился – общительностью он никогда не отличался. Однако в старших классах школы они по-настоящему сблизились – разумеется, на почве музыки. Дэн как раз усиленно занимался гитарой, а у Патрика, который еще в 12 лет выпросил у отца гитару и даже брал уроки, но так и не подружился с инструментом, была своя барабанная установка и 4-дорожечный магнитофон. Сам бог велел им хотя бы изредка встречаться и устраивать домашние джемы. Что касается музыкальных предпочтений Патрика, то они, по его словам, формировались под влиянием Pavement, Captain Beefheart и Devo. Но ни одно из этих влияний не смогло научить его ни петь, ни записывать риффы, ни освоить нотную грамоту. Зато, не получив за свою жизнь ни одного урока игры на барабанах, Патрик отлично чувствовал себя за ударной установкой. И не только. К тому моменту, когда приятели рискнули объединить свои силы в одной команде, оба уже могли бы заменить целую рок-группу: каждый из них, хотя бы худо-бедно, но играл на соло-гитаре, барабанах, бас-гитаре и клавишах. Однако в команде основной функцией Карни были барабаны, а Ауэрбаха – гитара и вокал, а также сочинение песен и продюсирование. Оба после школы попытались поучиться чему-нибудь в колледже, но разочаровались в науках. Оба понимали, что, кроме музыки, ничто их всерьез не интересует. Так что когда Ауэрбах, предприняв несколько попыток освоиться на местной сцене и поиграв в барах, наконец понял, что без демо-записей ему не обойтись, он обратился к Патрику Карни. Тот был только рад сотрудничеству и с удовольствием предоставил свой подвал для репетиций, но с одним условием – Дэниел сам найдет остальных музыкантов и обо всем с ними договорится. И Дэн нашел, но в назначенный день почему-то никто не пришел. Приятелям ничего не оставалось, как по старой памяти начать музицировать вдвоем, вспоминая блюзовые стандарты и придумывая на ходу какие-то слова. После нескольких таких встреч у них на руках оказалась полноценная демо-запись шести композиций, состоявших "из блюзовых риффов, нагло украденных у старых блюзменов, и текстов, написанных на скорую руку". Свой первый опытный образец музыканты разослали десяткам лейблов, но особого интереса никто к ним не проявлял. Так что на предложение поработать с инди-лейблом Alive из Лос-Анджелеса они ответили безоговорочным согласием. Название The Black Keys ("Черные клавиши"), как и свои первые риффы, музыканты тоже "украли" – воспользовались любимой фразой одного не совсем нормального музыканта, которого оба хорошо знали: оставляя сообщение на автоответчике, он, когда бывал не в духе, называл собеседника не иначе как ре-бемоль мажор (а это, как известно, аккорд, состоящий из черных клавиш). Прямиком из подвала в доме Патрика Карни на стол рекординговым боссами попал дебютный альбом The Black Keys, названный "The Big Come Up". Этот продукт домашнего магнитофона и юной фантазии, включавший восемь треков, вышел в 2002 году. Создавался он по простой схеме: "Мы очень любим повторяющиеся хуки, – признается Карни, – потому что мы выросли на такой музыке. Я слушал в детстве блюз, Дэн – классический рок. И эти простые, почти элементарные ходы, которые повторяются снова и снова, всегда действовали на нас завораживающе". Предваряли релиз два сингла, "Leavin' Trunk" и "She Said, She Said", оба каверы, первый – блюзовый стандарт, второй – песня Beatles. Альбом включал еще две чужих композиции – "Do the Rump" любимого Ауэрбахом Джуниора Кимбруга и "Run Me Down" легендарного Мадди Уотерса. Для никому не известной молодой группы, издающейся на независимом лейбле, диск пользовался достаточно большой популярностью в андеграундных кругах. Откликнулась на него и "центральная пресса", причем достаточно благосклонно. К примеру, обозреватель "Rolling Stone" поставил релизу 4 звездочки из 5. Однако до настоящей известности было еще топать и топать. И свою концертную деятельность команда начинала, мягко говоря, скромно: на первый официальный концерт, сыгранный в поддержку "The Big Come Up" в одном из баров Кливленда, собралось не больше 10 человек. На второй – уже около 25. За свое первое выступление, по словам музыкантов, они заработали по 10 долларов на брата, но рады были и этому. Однако изменять себе и своим принципам работы музыканты не собирались. В декабре 2002 года в том же самом подвале в доме Карни, за 14 часов рабочего времени, был записан второй лонгплей "Thickfreakness", обнародованный в апреле 2003 года. Как и дебютную работу, продюсировал его Патрик Карни, делая особый акцент на своей фирменной технике записи, которая позволяла добиваться стильного звучания в духе "старой школы". Эта умело и с любовью "подделанная" смесь ретро-блюза и гараж-рока привлекла к команде еще более широкое внимание прессы, все так же симпатизировавшей The Black Keys, равно как и новых фанов. Неожиданно для себя группа попала в число фаворитов у японских меломанов, которые сравнивали эффект от "Thickfreakness" со вспышкой молнии. Однако на одних комплиментах, даже таких патетических, в шоу-бизнесе далеко не уедешь, а финансовая сторона их карьеры оставляла желать лучшего. Казалось бы, сама судьба подарила им шанс поправить свое финансовое положение: одна английская компания предложила им чек на $100.000 в обмен на песню, которую она использует в телевизионной рекламе майонеза. Однако менеджер The Black Keys категорически воспротивился этому предложению, убедив Ауэрбаха и Карни, что это повредит их репутации и настроит против них фанов. А между тем прекрасная независимая репутация все никак не приносила материального удовлетворения. Более того, музыканты уже начали остро ощущать нехватку промоушена и острый дефицит ротации на радио. Это сказывалось и на низких до смешного тиражах, и на посещаемости концертов. После того как им пришлось взять на себя выплату убытков (в размере $3.000), понесенных организаторами их европейского турне, они поняли, что надо срочно что-то предпринимать. На помощь снова пришла реклама. Если майонез и мог как-то повредить их репутации, то об автомобилях Nissan этого нельзя было сказать. Так ниссановский рекламный ролик, озвученный песней "Set You Free", стал не просто источником крайне необходимых денежных знаков, но и первой регулярной рекламой The Black Keys на телевидении. Еще более многочисленные нити протянул к разным рекламным носителям третий студийный альбом "Rubber Factory" (2004). В отличие от его предшественников, диск потребовал гораздо больше времени – целых 4 месяца, но не стал от этого звучать попсовее и прилизаннее. Фирменный "грязный, старый звук" команда честно сохранила, использовав для этого свою обычную незамысловатую аппаратуру и новое помещение – заброшенную угольную электростанцию в родном Акроне. Фанов музыканты порадовали, критиков не разочаровали, а кинопродюсерам и рекламщикам дали богатую пищу для размышления. Целых 6 композиций с этого альбома оказались востребованными в кино (они прозвучали в 5 фильмах), на телевидении, в коммерческой рекламе (и не какой-нибудь, а Sony Ericsson, American Express и Victoria's Secret). На новый уровень вышла и их концертная активность. Теперь площадку для разогрева им с удовольствием предоставляли Pearl Jam, Radiohead и Бек (Beck), а на свою территорию их приглашали не только Америка и Европа, но и Австралия. Именно во время австралийского тура был записан первый концертный видеоальбом The Black Keys "Live" (2005), созданный по следам шоу в сиднейском Metro Theater. В мае 2006 года группа выпустила новый мини-альбом, трибьют Джуниору Кимбругу, "Chulahoma: The Songs of Junior Kimbrough", чьи каверы музыканты издавали на первых двух дисках. А через 4 дня вышел второй концертник "Live in Austin, TX", записанный осенью 2003 года в Остине. В сентябре 2006 появился четвертый лонгплей "Magic Potion", изданный на новом лейбле Nonsuch Records (одно из подразделений Warner Music Group). Продюсировали его оба музыканта, которые на этот раз включили в альбом только свои собственные песни, обойдясь без единого кавера. Пока массовый покупатель не спешил выкладывать свои денежки за альбомы The Black Keys, команда не возражала против других заработков, отдавая песни для видеоигр, фильмов и сериалов. Одним из самых успешных песенных вложений The Black Keys стало включение трека "Your Touch" в звуковую дорожку к зомби-комедии "Zombieland" (2009), которая пользовалась невиданной для своего жанра популярностью и возглавила список самых кассовых фильмов про зомби за всю историю кино. Это мелькание на кино- и телеэкранах мало-помалу начинало приносить свои плоды. И пятый альбом The Black Keys "Attack & Release", обнародованный в апреле 2008 года, стал фаворитом не только отдельных музыкальных изданий, но и широких меломанских масс. Уже то, что диск дебютировал под 14 номером в поп-рейтинге Billboard 200, стало для музыкантов большим сюрпризом. Однако и они, со своей стороны, приложили немало усилий, чтобы, так сказать, стать ближе к народу. "Attack & Release" – это первый альбом в каталоге группы, записанный в настоящей студии, с профессиональным продюсером (саунд доверили Брайану Бертону, aka Danger Mouse), с привлечением сессионных музыкантов – гитаристов, духовиков, клавишников и двух вокалисток. Одну из композиций, "Things Ain't Like They Used to Be", Ауэрбах даже записал дуэтом с тогда еще 17-летней кантри-певицей Джессикой Ли Мейфилд (Jessica Lea Mayfield). Вопреки всем опасениям, это явное улучшение условий труда и увеличение бюджета повлияло на фирменное звучание команды только в лучшую сторону. Критики наперебой нахваливали завораживающий, магнетический саунд, а некоторые пошли еще дальше. Журнал "Rolling Stone" включил "Attack & Release" в сотню лучших альбомов 2000-х, а сингл "I Got Mine" – Тор 25 лучших песен 2008 года. В 2009 году между неразлучными коллегами впервые пробежала кошка, когда Карни с удивлением узнал, что его напарник выпустил сольный блюз-рок-альбом "Keep It Hid" и даже отправляется в сольный тур. Ауэрбах, в свою очередь, уверяет, что обо всем рассказывал Патрику, но "он предпочел сделать вид, что ничего не знает". Несколько месяцев они даже не разговаривали, и никто не мог бы тогда сказать, чем это обернется для The Black Keys. Ситуация усугублялась и семейными проблемами Патрика Карни, у которого начались серьезные разногласия с женой. Между тем, он тоже попробовал себя как сольный артист и записал с приглашенными музыкантами инди-рок-альбом "Feel Good Together" (2009). Вскоре Патрик окончательно расстался с женой, а когда снова встретился с Дэном, им обоим было что сказать друг другу. От разговоров они быстро перешли к делу и за 10 дней записали 16 новых песен (благо набросков и идей у обоих хватало). Так появился судьбоносный для The Black Keys альбом "Brothers" (2010), записанный "в обычном блочном доме где-то в глухом уголке Алабамы, с помощью 5 микрофонов, гитарного усилителя и барабанной установки, – рассказывает Дэниел Ауэрбах. – Мы потратились на эту запись по минимуму, но я думаю, это самый честный путь к настоящей, честной музыке". Тандем друзей, продюсировавших альбом в компании с Брайаном Бертоном, строил радужные планы, как бы продать хотя бы 250 тысяч дисков. Действительность превзошла все ожидания. Черный компакт-диск с красно-белой надписью "Это альбом The Black Keys. Название альбома – Brothers" за первую же неделю разошелся солидным 73-тысячным тиражом, а через год – 850-тысячным. Он дебютировал в Тор 3 американского поп-чарта и вошел в число лучших релизов 2010 года, по версии журналов "Rolling Stone", "Spin" и "Time". Более того, он принес авторам три номинации Billboard Music Awards и шесть номинаций Grammy, из которых победил в трех: лучший альтернативный альбом, лучшее исполнение рока (за сингл "Tighten Up") и лучшее оформление: так высоко критики оценили суровый минимализм обложки, которую придумал Майкл Карни, брат Патрика, занимающий должность креативного директора группы. Успех, как и беда, не приходит один. С ним приходят повышенное внимание публики, новые обязательства и бесчисленные предложения. 2011 год оказался настолько перенасыщен концертами, что, откатав часть тура, музыканты вынуждены были отказаться от выступлений в Австралии, Новой Зеландии и ряде стран Европы, ссылаясь на усталость и нервное истощение. "Мы достаточно давно гастролируем, чтобы понимать, когда пора сделать паузу, – объясняет Патрик Карни. – Конечно, мы могли бы еще год выступать, выдоив все возможное из "Brothers". Но нам всегда нравились группы, которые больше всего любят писать музыку, которые много записывают и издают, у которых каждый новый альбом отличается от предыдущего. Именно такой группой мы себя и видим". Danger Mouse снова присоединился к Ауэрбаху и Карни в марте 2011 года, когда они, выкраивая время между концертами, занялись подготовкой седьмого альбома "El Camino". Сессии заняли, по меркам группы, довольно много времени – 41 день, и проходили они в новой студии, обустроенной Ауэрбахом в Нэшвиле, куда переехали оба музыканта. Брайан Бертон руководил не только процессом записи, но и отметился в роли соавтора всех 11 композиций, создававшихся под влиянием американского ретро – жанров, популярных в 50-70-е годы: рок-н-ролл, глэм-рок, рокабилли. Хотя на этой записи рОковые элементы получили некоторую фору по сравнению с блюзовыми, это не умерило восторгов ни публики, ни прессы. "El Camino" дебютировал на второй позиции американского поп-чарта и установил личный рекорд The Black Keys – свыше 200.000 проданных дисков в первую неделю. Более чем удачно шли его дела и в Канаде, где он дебютировал в Тор 3 и вскоре получил платиновый сертификат. За три месяца "El Camino" стал платиновым также в Австралии и Новой Зеландии и золотым – в США и Великобритании. Как ни странно, но критики все никак не разочаровывались в The Black Keys. Сначала традиционно хвалебные рецензии, потом – итоговые списки лучших альбомов года. "El Camino" был отмечен среди самых ярких релизов 2011 года такими изданиями, как "Rolling Stone", "Spin", "Paste", "Time", "Allmusic". В числе лучших песен года пресса отметила композицию "Little Black Submarines", а читатели "Rolling Stone" назвали своим фаворитом песню "Lonely Boy" (она вошла Тор 3). Гастрольный тур 2012 года, охватывающий Европу и Америку и совпавший с 10-й годовщиной студийного дебюта, проходил с небывалым размахом. Это первое турне по стадионам, которое The Black Keys проводят как хэдлайнеры, причем часть шоу на разогреве у них играют Arctic Monkeys. Билеты на их концерт в Madison Square Garden Нью-Йорке разлетелись за 15 минут. Дискография: - The Big Come Up (2002) - Thickfreakness (2003) - Rubber Factory (2004) - The Moan [EP] (2004) - Chulahoma - The Songs of Junior Kimbrough [EP] (2006) - Magic Potion (2006) - Attack & Release (2008) - Brothers (2010) - El Camino (2011) Скрыть...
Популярные аккорды The Black Keys:
алфавиту | просмотрам | случайно
  • Key:
    
    p=pull b=bend /=slide (2)=harmonic v=vibrato
    2b>4=bend 2nd fret to 4
    
    
    Order:
    
    Intro - A - B - C - B(v2) - C - B(v3) - D - A - 
    
    Solo - C - B(v2) - C - B(v3) - D(v2) - A - Outro
    
    
    A:
    
    e|--------------------------------------------|
    B|--------------------------------------------|
    G|--------------------------------------------|
    D|-7-5----------------------------------------|
    A|-----7-6p5-3-5---5p3p0----------------------|
    E|-----------------------3-5------------------|
    
    e|--------------------------------------------|
    B|--------------------------------------------|
    G|--------------------------------------------|
    D|-7-5----------------------------------------|
    A|-----7-6p5-3-5---3/5-3/5-5p3p0--------------|
    E|-------------------------------3------------|
    
    e|--------------------------------------------|
    B|--------------------------------------------|
    G|--------------------------------------------|
    D|-7-5----------------------------------------|
    A|-----7-6p5-3-5---5p3p0----------------------|
    E|-----------------------3-5------------------|
    
    e|--------------------------------------------|
    B|--------------------------------------------|
    G|--------------------------------------------|
    D|-7-5-------------5--------------------------|
    A|-----7-6p5-3-5/7----------------------------|
    E|--------------------------------------------|
    
    
    B:
    
    e|--------------------------------------------------------|
    B|--------------------------------------------------------|
    G|---2---2---2---2-2---------------2---2---2---2p0--------|
    D|-------------------------------------------------2p0----|
    A|-0---0---0---0-------------0---0---0---0-------------3b-|
    E|---------------------0-3-4------------------------------|
    
    e|--------------------------------------------|
    B|--------------------------------------------|
    G|---2---2---2---2-2---------------2---2---2--|
    D|--------------------------------------------|
    A|-0---0---0---0-------------0---0---0---0----|
    E|---------------------0-3-4------------------|
    
    B(v2):
    
    e|--------------------------------------------------------|
    B|--------------------------------------------------------|
    G|---2---2---2---2-2---------------2---2---2---2p0--------|
    D|-------------------------------------------------2p0----|
    A|-0---0---0---0-------------0---0---0---0-------------3b-|
    E|---------------------0-3-4------------------------------|
    
    e|-----------------------------------------------|
    B|-----------------------------------------------|
    G|---2---2---2---2-2---------------2---2---2-2---|
    D|-----------------------------------------------|
    A|-0---0---0---0-------------0---0---0---0-----0-|
    E|---------------------0-3-4---------------------|
    
    B(v3):
    
    e|--------------------------------------------------------|
    B|--------------------------------------------------------|
    G|---2---2---2---2-2---------------2---2---2---2p0--------|
    D|-------------------------------------------------2p0----|
    A|-0---0---0---0-------------0---0---0---0-------------3b-|
    E|---------------------0-3-4------------------------------|
    
    e|-----------------------------------------------------|
    B|-----------------------------------------------------|
    G|---2---2---2---2-2---------------2---2---2-2---------|
    D|-----------------------------------------------------|
    A|-0---0---0---0-------------0---0---0---0-----0-------|
    E|---------------------0-3-4---------------------3-2-0-|
    
    
    C:
    
    e|--------------------------------------------|
    B|---------------------------8-5--------------|
    G|-2-5/7-5-----5-----------5-----7b>9>7-p5----|
    D|---------5h7---7-------7-----------------7--|
    A|-----------------3-3-5----------------------|
    E|--------------------------------------------|
    
    
    D:
    
    e|--------------------------------------------|
    B|-5-3-----3-1---5----------------------------|
    G|-----------------7p5------------------------|
    D|---------------------7----------------------|
    A|--------------------------------------------|
    E|-----0-3b-----------------------------------|
    
    e|-------------------------------------------------|
    B|-------------------------------------------------|
    G|---2---2---2---2-2---------------2---2---2-2-----|
    D|-------------------------------------------------|
    A|-0---0---0---0-------------0---0---0---0-----0---|
    E|---------------------0-3-4---------------------3-|
    
    D(v2):
    
    e|--------------------------------------------|
    B|-5-3-----3-1---5----------------------------|
    G|-----------------7p5------------------------|
    D|---------------------7----------------------|
    A|--------------------------------------------|
    E|-----0-3b-----------------------------------|…
  • Midnight...                                                         
    E  :--------------------------------------------------------------------
    B  :----2--*----0-----1-----3--1---------2--*----0-----1-----3--4-3-2---
    G  :----2--*----0--2----2--------2-0-----2--*----0--2----2--------------
    D…
  • / = slide
    ~ = vibrato 
    ^ = bend 
    h = hammer on
    p = pull off
    t = thumb
    
                                                                           
    E  :-----------------------------------------5--------------------------
    B  :-----------------------------------------5---------------6-b8-r6----
    G…
  • ==============================================================
     Intro (0:00 - 0:27)
    ==============================================================
    
    Intro Riff (0:00)
    e|---------------------------------------------------------|
    B|---------------------------------------------------------|
    G|---------------------------------------------------------|
    D|----12------10---12-10---7-----5---7-5---3-----5-----3---|
    A|-10----108----8-------5---53---3-----1---13---31-----|
    E|---------------------------------------------------------|
    
    Rhythm…
  • Intro:  EAEA  -  EEE  -  E    
    
     E  
    Well I'm so above you  
     G                 A  
    And it's fine to see  
     E                        G  A  
    But I came to love you anyway  
     E  
    So you tore…
  • Intro: Em D D Am 
    
    Em       D
    Little black submarines
    D       A
    Operator please
      C    A     Em
    Put me back on the line
    Em      D
    Told my girl I'd be back
    D       A
    Operator please
    C       G     Em
    This is wrecking…
  • Tuning: EADGBE
    Capo: 2nd Fret
    
    -------0-------------------------------------------|
    -------0-------------------------------------------|
    -1-----1--------4----4------------6----------------|
    -2-----2--------5----5------------7---0------------|
    -2--------------5----5---0---7----7---0------------|
    -0----------0---3----3---0---5----5---0---7----3b--|
    
    ---------------------------------------------------|
    ------------------------0------------------------0-|
    ------6-------2---2b----0--------6---------------0-|
    ------7---0---4---4b----0--------7---0---7---7b--0-|
    -5----7---0-----------------7----7---0---6---6b----|
    -7----5---0-----------------5----5---0-------------|…
  • Intro:
    0:00                      0:05                     0:10
           [1] [1]
    e|--------------------------------------0h2-0-------------------------------|
    B|---------------------------------------------0h2p0----------0h2-----------|
    G|------------------------------0-2---------------------0h2--------0h2p0----|
    D|--------------------------0h2------------------------------------------2--|
    A|----------------------0h2-------------------------------------------------|
    E|--12----3^V(3)^-----------------------------------------------------------|
    
    0:13…
  • Gtr I
     W       q S S E E S S +Q
    |----------|---------------------|
    |----------|---------------------|
    |----------|----2-2-2-2-0h1-(1)--|
    |----------|---------------------|
    |----------|---------------------|
    |----------|-0-------------------|…
  • Intro
    
    e|------3s5---------5s7---------7s9-----------5------5----|
    B|---------------------------------------------5b7--------|
    G|------5s7---------7s9---------9s11--------------5b7-5p0-|
    D|--------------------------------------------------------|
    A|--0-0----0-0-0-0-0---0-0-0-0-0----0-0-0-0-0-------------|
    E|--------------------------------------------------------|
    
    Main…
  • Intro: didn't bother, but play something slow and bluesy 
    around this scale:
    e---------5---------8------------------|
    B---------5---------8------------------|
    G---------5-----7---8------------------|
    D---------5-----7----------------------|
    A---------5--6--7----------------------|
    E---------7---------8------------------|
    
    Main…
  • Intro:
    e|---------x-----------x-----------------------------x-----+
    b|---------x-----------x-----------------------------x-----+
    g|---------x---------6-x4/6---------------2~-------6-x4/6--+ 
    d|-------2-x----2----7-x5/7-----2~------2----------7-x5/7--+
    a|-5-3-5---x3-5------7-x5/7-3-5-----3-5------------7-x5/7--+
    E|---------x------5--5-x3/5--------------------0-5-5-x3/5--+
    
    Verse…
  • Introduction:
                                                 (slow bend)
    e----------------------------------------------------------------------------|
    b----------------------------------------------------------------------------|
    g--------------------5-5--------------------------5-5-----------------5b6----|
    d--5-5-5--x-3-3-3----5-5--------5-5-5--x-3-3-3----5-5--------5-5-5-----------|
    a--5-5-5--x-3-3-3----3-3--------5-5-5--x-3-3-3----3-3--------5-5-5-----------|
    e--3-3-3--x-1-1-1-(0)-------(0)-3-3-3--x-1-1-1-(0)-------(0)-3-3-3-----------|…
  • e|-----------------------|-0--------------0------|-----------------------|
    B|----------------0h-2---|-------2-------------(2)----------------0h-2---|
    G|----------0h-1---------|-----------------------|----------0h-1---------|
    D|-------2-----------2---|-------2---------------|-------2-----------2---|
    A|-----------------------|-----------------------|-----------------------|
    E|-0-----------0---------|-0-----------0-----3b--|-0-----------0---------|
    
    e|-0--------------0------|-------2-----2---------|-2----(2)-0h-2--0--2-0-|
    B|-------2-------------(2)-----------------------|-----------------------|
    G|-----------------------|-----------------------|-----------------------|
    D|-------2---------------|-----------------------|-----------------------|
    A|-----------------------|-0-----0-----0-----0---|-0-----0-----0-----0---|
    E|-0-----------0-----3b--|-----------------------|-----------------------|
    
    e|-----------------------|-0--------------0------|-------2-----2---------|
    B|----------------0h-2---|-------2-------------(2)-----------------------|
    G|----------0h-1---------|-----------------------|-----------------------|
    D|-------2-----------2---|-------2---------------|-----------------------|
    A|-----------------------|-----------------------|(2)----2-----2----(2)--|
    E|-0-----------0---------|-0-----------0-----3b--|-----------------------|
    
    e|-2----(2)-0h-2--0--2-0-|
    B|-----------------------|
    G|-----------------------|
    D|-----------------------|
    A|-2-----2-----2-----2---|
    E|-----------------------|
    
    e|-----------------------|-----------------------|-------2-----2---------|
    B|-7--------5------------|-7-----7-----7--5------|-----------------------|
    G|-6--------------6------|(6)----6---------------|-----------------------|
    D|-----------------------|-----------------------|-----------------------|
    A|-0-----0-----0-----0---|-0-----0-----0-----0---|(2)----2-----2----(2)--|
    E|-----------------------|-----------------------|-----------------------|
    
    e|-2----(2)-0h-2--0--2-0-|
    B|-----------------------|
    G|-----------------------|
    D|-----------------------|
    A|-2-----2-----2-----2---|…
  • Intro: F#m F#m F#m Amaj7 Bm C# F#m Amaj7 Bm C#  
     
      F#m             A            Bm           C#
    I wanted love, I needed love, most of all, most of all 
     F#m                 A                      Bm           
    Someone…
  • d|--------------------------------------------------|
    B|-------------------------------3b~~(p0)-----------|1st part of main riff
    G|-------------------------------3b~~(p0)-----------|
    D|--------------------------------------------------|
    G|-0--3--5--5--3--5--0--5--3--0---------------------|
    D|--------------------------------------------------|
    
    d|-------------------------------------------------------|
    B|-------------------------------11s12/~~----------------|2nd…
  • Intro: G5
    
    G5                  D5               C5
    So long, why you waiting so long, after every single 
    word you said
    C5             D5
    I'm feeling dead and gone
    G5                D5                   C5
    Along,…
  • Main Riff [1]
    e[----------0----------------]
    b[----------0----------------]
    g[0--0----------------1-1----]
    d[--2-2p0-------------2-2----]
    a[--------2-----------2-2----]
    E[------------0-3b-0--x-x----]
    
    I got up this…
  • main riff:
    e|-------------------------------------------------------|
    B|-------------------------------------------------------|
    G|------7------------------------------------------------|
    D|--0------5s4----0--------------------------------------|
    A|-----------------------3sb-------5sb~------------------|
    D|--0----------------3sb-----------5sb-------------------|
    
    
    e|---------------------------------------------------|
    B|---------------------------------------------------|
    G|------0-----------------0--------------------------|
    D|------2--------0--------2-----5-5-3-0--------------|
    A|--2------2-----2---2-------2-----------------------|
    D|----------3-------3---------3----------------------|…
  • Standard Tuning
    
    Intro/Verse
     Gm                  Cm
    e|----3-----3--3--|----3----3--3--|
    B|----3-----3--3--|----3----3--4--|
    G|----3-----3--3--|----3----3--5--|
    D|----5-----------|----5----5--5--|
    A|----------------|---------------|
    E|3---------------|3--------------|
    
    Chorus
    e|-------------------|------------------|----------------|-------------|
    B|-------------------|------------------|----------------|-------------|
    G|-10/12~~~10/12~~~10|/12~~~~10753/5-|-5/7~~~3/5---3/5|/7~~~~~7---10|
    D|--x-------x-------x|--------x---------|-x-----x-----x--|-------x----x|
    A|--8/10~~~~8/10~~~~8|/10~~~~~8531/3-|-3/5~~~1/3---1/3|/5~~~~~5----8|
    E|-------------------|------------------|----------------|-------------|…
  • Inтrо (Rhythm Guitar):                                  
       F#m G  G# A              A  G# G F#m|1.           |2.
    e|--2--3--4--5----5---------5--4--3--2---------------|-----------|
    B|о-2--3--4--5------5-------5--4--3--2--------------о|--2--2-----|
    G|--2--4--5--6--------6-----6--5--4--2---2-2---------|-----------|
    D|--4--5--6--7--------------7--6--5--4-------4-2-----|-----------|
    A|о-4--5--6--7--------------7--6--5--4-----------4--о|-----------|
    E|--2--3--4--5--------------5--4--3--2---------------|-----------|…
  • Tuning: Standard (EADGBE)
    
    e|---------------------------------------------------------------------------|
    B|---------------------------------------------------------------------------|
    G|---------------------------------------------------------------------------|
    D|-7---7-5---5-4---4-3--5---7---7-5---5-4------------------------------------|
    A|-7---7-5---5-4---4-3--5---7---7-5---5-4------------------------------------|
    E|-5---5-3---3-2---2-1--3---5---5-3---3-2------------------------------------|
    
    e|-------------------------------0-----------------------------0-------------|
    B|-----------------2----2----3---0---------------2----2----3---0-------------|
    G|-----------------2----2----2----0h2------------2----2----2----0h2----------|
    D|---------------------------------------------------------------------------|
    A|--------------0----0------------------------0----0-------------------------|
    E|--------------------3---32---20-------------------3---32---20--------------|…
  • Main riff (intro)
    e|-----------------------------------------------------------------------------------|
    B|-----------------------------------------------------------------------------------|
    G|-----9--7--6------9----------9--7--6------9-------------9--7--6--------9-----7-----|
    D|-7h9----------7h9--------7h9----------7h9-----------7h9------------7h9---7h9---7---|
    A|---------------------7-----------------------7---7--------------7----------------7-|
    E|-----------------------------------------------------------------------------------|
    
    e|----------------------------|
    B|----------------------------|
    G|-----9--7--6--------9--7----|…
  • Tuning: Standard
    
    e|---------------------------------------------------------------------------|
    B|---------------------------------------------------------------------------|
    G|-----------5--7--7--5-5/9-7--5--7--5--2--0---------------------------------|
    D|---5/7--7------------------------------------------------------------------|
    A|---------------------------------------------------------------------------|
    E|---------------------------------------------------------------------------|
    
    e|---------------------------------------------------------------------------|
    B|---------------------------------------------------------------------------|
    G|-----------5--7--7--5-5/9--------------------------------------------------|
    D|---7--7--------------------------------------------------------------------|
    A|---------------------------------------3--5--5--3--3/7--7--5--5--3--0------|
    E|-------------------------------3/5--5----------------------------------3---|
    
    e|---------------------------------------------------------------------------|
    B|---------------------------------------------------------------------------|
    G|---------------------------------------------------------------------------|
    D|---------------------------------------------------------------------------|
    A|--------3--5--5--3--3/7-7-10--12-----------3--5--5--3--3/7--5--3--5--3--0--|
    E|3/5--5-----------------------------3/5--5---------------------------------3|
    
    e|---------------------------------------------------------------------------|
    B|---------------------------------------------------------------------------|
    G|---------------------------------------------------------------------------|
    D|---------------------------------------------------------------------------|
    A|--------3--5--5--3--3/7-7-10--12-------------------------------------------|
    E|3/5--5---------------------------------------------------------------------|…
  • Tuning:Standard
    
    Intro:
    
    e|---------------------------|
    B|---------------------------|
    G|-8---8-7-6---6-5-4---3--2--|
    D|-9---9-8-7---7-6-5---4--3--|
    A|-9---9-8-7---7-6-5---4--3--|
    E|-7---7-6-5---5-4-3---2--1--|
    
    Main…
  • Intro: 0:01-0:07
    
    e|------------------------------|
    B|------------------------------|
    G|------------------------------|
    D|---7--77----7--77----77-------| x2
    A|------------------------------|
    E|-0--------0--------0----------|
    
    
    
    0:07-0:16…
  • Riff 1
    e|---------------------------------------------|
    B|---------------------------------------------|
    G|----------------------------2/4/2p0----------|
    D|------------0-2-2---------------------2-2----|
    A|------0h2------------------------------------|
    E|---0-----------------------------------------|
    
    Riff…
  • Intro:
    ------------------------------------------------------------------------|
    ----------8--5---5-------------5-8-5----------8--5---5------------------|
    ---------------7------------7----------------------7------------2b4p0---|
    ----------------------------------------------------------------------2-|
    ------------------------------------------------------------------------|
    -0-3--5-0---------0-3--5-0-----------0-3--5-0----------0-3--5-0---------|
    
    ------------------------------------------------------------------------|
    ----------8--5---5-------------5-8-5----------8/10-8-5------------------|
    ---------------7------------7-----------------------------------2b4p0---|
    ----------------------------------------------------------------------2-|
    ------------------------------------------------------------------------|
    -0-3--5-0---------0-3--5-0-----------0-3--5-0----------0-3--5-0---------|
    
    Verse:
    |----------|(x5)…
  • Tuning: Standard
    
    Order:	Intro		x1
    	Lead Riff	x3
    	Verse Riff	x6
    	Chorus Riff	x4
    	Lead Riff	x4
    	Verse Riff	x6
    	Chorus Riff	x4
         Lead Riff	x7 (under solo)
    	Verse Riff	x6
    	Chorus Riff	x4
    	Lead Riff	x4
    	Outro…
  • E                    C#m        E
    e|--------------------------------------------------------------------------|
    B|--------------------------------------------------------------------------|
    G|--------------------------------------------------------------------------|
    D|--------------------14-----14----------------------------------14-----14--|
    A|--------------------------------------------------------------------------|
    E|-12-12-12-12-12-12-----12------9-9-9-9-9-9---12-12-12-12-12-12-----12-----|
    
    e|-------------------------------|
    B|-------------------------------|
    G|-------------------------------|…
  • Open A and D note's with your thumb.
     
    Intro:
    E :----------------------5-----2----5--------------5-----2----5---------|
    B :---------------------------------------------------------------------|
    G :--------------------------------------2----2--------------------2----|
    D…
  • Intro
    
    e|---------------------------------------------------------------------------|
    B|---------------------------------------------------------------------------|
    G|---------------------------------------------------------------------------|
    D|---------------------------------------------------------------------------|
    A|---------------------------------------------------------------------------|
    E|-3-3--3-3--8-8--8-8--6-6--6-6--1-0-1--3-3--3-3--8-8--8-8--6-6--6-6--1-0-1--|
    
    e|---------------------------------------------------------------------------|
    B|---------------------------------------------------------------------------|
    G|---------------------------------------------------------------------------|
    D|---------------------------------------------------------------------------|
    A|---------------------------------------------------------------------------|
    E|-3-3--3-3--8-8--8-8--6-6--6-6--1-0-1--3-3--3-3--8-8--8-8--8h10-10-10-10----|
    
    e|----------------------------------------------|
    B|----------------------------------------------|
    G|----------------------------------------------|
    D|----------------------------------------------|
    A|----------------------------------------------|
    E|-8h10-10-10-10--8h10-10-10-10--8h10-10-10-10--|
    
    Chorus
    
    e|------------------------------------------------------|
    B|------------------------------------------------------|
    G|-4-x-x-4-x-x-9--x-x-9--x-x-11-x-x-11-x-x-4-x-x-4-x-x--|…
  • E --------------------------------------------------------------------------|
    B --------------------------------------------------------------------------|
    G -------7----(7h9-7/4-4-------------7------------------------------------7-|
    D…
  • Riff А
    E |--------------------------|Chorus
    B |--------------------------|
    G |---------------------5----|
    D |-7-7-5-7-7-5-7-7-5-7-5----|
    A |-7-7-5-7-7-5-7-7-5-7-3----|
    E |-5-5-3-5-5-3-5-5-3-5------|
    
    Riff В
    E |--------------------------|palm…
  • Tuning: Drop D
    
    Verse:
    (0:00-0:16)
    e|---------------------------------------------------------------------------|
    B|---------------------------------------------------------------------------|
    G|---------------------------------------------------------------------------|
    D|-----------------3---------------------------------------------------------|x2
    A|-3-5---0-3-5-3-5-----0-0-3-5---0-3-5-3-0---0-0-----------------------------|
    D|-----------------------------------------3---------------------------------|
    
    (0:16-0:22)
    e|---------------------------------------------------------------------------|
    B|---------------------------------------------------------------------------|
    G|-----------------3---------------------------------------------------------|
    D|-3-5---0-3-5-3-5-----0-0-3-5---0-3-5-3-0-----------------------------------|
    A|-----------------------------------------1-0-0-----------------------------|
    D|---------------------------------------------------------------------------|
    
    (0:22-0:29)
    e|---------------------------------------------------------------------------|
    B|---------------------------------------------------------------------------|
    G|---------------------------------------------------------------------------|
    D|-----------------3---------------------------------------------------------|
    A|-3-5---0-3-5-3-5-----0-0-3-5---0-3-5-3-0---0-0-----------------------------|
    D|-----------------------------------------3---------------------------------|
    
    (0:29-0:36)
    e|---------------------------------------------------------------------------|
    B|---------------------------------------------------------------------------|
    G|-----------------3---------------------------------------------------------|
    D|-3-5---0-3-5-3-5-----0-0-3-5---0-3-5-3-0-----------------------------------|
    A|-----------------------------------------1-0-0-----------------------------|
    D|---------------------------------------------------------------------------|
    
    (0:36-0:42)
    e|---------------------------------------------------------------------------|
    B|---------------------------------------------------------------------------|
    G|---------------------------------------------------------------------------|
    D|-----------------3---------------------------------------------------------|
    A|-3-5---0-3-5-3-5-----0-0-3-5---0-3-5-3-0-----------------------------------|
    D|-----------------------------------------3---------------------------------|
    
    Chorus:
    (0:42-1:03)
    e|---------------------------------------------------------------------------|
    B|---------------------------------------------------------------------------|
    G|---------------------------------------------------------------------------|
    D|---------3---------------3-------3---5b7-5-3-------------------------------|x3
    A|-5-5-5-5---5-3---0-0-3-5---5-5-5---5---------------------------------------|
    D|---------------------------------------------------------------------------|
    
    Break:
    (1:03-1:10)
    e|---------------------------------------------------------------------------|
    B|---------------------------------------------------------------------------|
    G|---------------------------------------------------------------------------|
    D|---------------------------------------------------------------------------|
    A|-----------------3~~-------------------------------------------------------|
    D|-5~~-7~~-3~~-5~~-----------------------------------------------------------|
    
    Verse:
    (1:10-1:24)
    e|---------------------------------------------------------------------------|
    B|---------------------------------------------------------------------------|
    G|---------------------------------------------------------------------------|
    D|-----------------3---------------------------------------------------------|x2
    A|-3-5---0-3-5-3-5-----0-0-3-5---0-3-5-3-0---0-0-----------------------------|
    D|-----------------------------------------3---------------------------------|
    
    (1:24-1:31)
    e|---------------------------------------------------------------------------|
    B|---------------------------------------------------------------------------|
    G|-----------------3---------------------------------------------------------|
    D|-3-5---0-3-5-3-5-----0-0-3-5---0-3-5-3-0-----------------------------------|
    A|-----------------------------------------1-0-0-----------------------------|
    D|---------------------------------------------------------------------------|
    
    (1:31-1:38)
    e|---------------------------------------------------------------------------|
    B|---------------------------------------------------------------------------|
    G|---------------------------------------------------------------------------|
    D|-----------------3---------------------------------------------------------|
    A|-3-5---0-3-5-3-5-----0-0-3-5---0-3-5-3-0---0-0-----------------------------|
    D|-----------------------------------------3---------------------------------|
    
    (1:38-1:45)
    e|---------------------------------------------------------------------------|
    B|---------------------------------------------------------------------------|
    G|-----------------3---------------------------------------------------------|
    D|-3-5---0-3-5-3-5-----0-0-3-5---0-3-5-3-0-----------------------------------|
    A|-----------------------------------------1-0-0-----------------------------|
    D|---------------------------------------------------------------------------|
    
    (1:45-1:49)
    e|---------------------------------------------------------------------------|
    B|---------------------------------------------------------------------------|
    G|---------------------------------------------------------------------------|
    D|-----------------3---------------------------------------------------------|
    A|-3-5---0-3-5-3-5-----0-0-3-5-----------------------------------------------|
    D|---------------------------------------------------------------------------|
    
    Chorus:
    (1:51-2:12)
    e|---------------------------------------------------------------------------|
    B|---------------------------------------------------------------------------|
    G|---------------------------------------------------------------------------|
    D|---------3---------------3-------3---5b7-5-3-------------------------------|x3
    A|-5-5-5-5---5-3---0-0-3-5---5-5-5---5---------------------------------------|
    D|---------------------------------------------------------------------------|
    
    Break:
    (2:12-2:26)
    e|---------------------------------------------------------------------------|
    B|---------------------------------------------------------------------------|
    G|---------------------------------------------------------------------------|
    D|---------------------------------------------------------------------------|
    A|-----------------3~~-------------------------------------------------------|
    D|-5~~-7~~-3~~-5~~-----3~~-2~~-1~~-0~~---------------------------------------|
    
    (2:32-2:41)
    e|---------------------------------------------------------------------------|
    B|---------------------------------------------------------------------------|
    G|---------------------------------------------------------------------------|
    D|---------------------------------------------------------------------------|
    A|---------------------------------------------------------------------------|
    D|-3~~-2~~-1~~-0~~-----------------------------------------------------------|
    
    Chorus:
    (2:41-3:06)
    e|---------------------------------------------------------------------------|
    B|---------------------------------------------------------------------------|
    G|---------------------------------------------------------------------------|
    D|---------3---------------3-------3---5b7-5-3-------------------------------|x3
    A|-5-5-5-5---5-3---0-0-3-5---5-5-5---5---------------------------------------|
    D|---------------------------------------------------------------------------|
    
    Break:
    (3:06-3:14)
    e|---------------------------------------------------------------------------|
    B|---------------------------------------------------------------------------|
    G|---------------------------------------------------------------------------|
    D|---------------------------------------------------------------------------|
    A|-----------------5~~-------------------------------------------------------|
    D|-5~~-7~~-3~~-5~~-----------------------------------------------------------|
    
    Verse:
    (3:14-3:27)
    e|---------------------------------------------------------------------------|
    B|---------------------------------------------------------------------------|
    G|---------------------------------------------------------------------------|
    D|-----------------3---------------------------------------------------------|x2
    A|-3-5---0-3-5-3-5-----0-0-3-5---0-3-5-3-0---0-0-----------------------------|
    D|-----------------------------------------3---------------------------------|
    
    (3:27-3:34)
    e|---------------------------------------------------------------------------|
    B|---------------------------------------------------------------------------|
    G|-----------------3---------------------------------------------------------|
    D|-3-5---0-3-5-3-5-----0-0-3-5---0-3-5-3-0-----------------------------------|
    A|-----------------------------------------1-0-0-----------------------------|
    D|---------------------------------------------------------------------------|
    
    (3:34-3:42)
    e|---------------------------------------------------------------------------|
    B|---------------------------------------------------------------------------|
    G|---------------------------------------------------------------------------|
    D|-----------------3---------------------------------------------------------|
    A|-3-5---0-3-5-3-5-----0-0-3-5---0-3-5-3-0---0-0-3-5-------------------------|
    D|-----------------------------------------3---------------------------------|…
  • Tuning: Standard EADGBE
    
    Verse 1:
    Dm7
    I've been tried
    Am7
    And I've been tested
    Dm7
    I was born tired
    Am7
    And I never got rested
    Dm7
    Harder than 
    Am7
    Marble stone
    Dm7
    I'm better off
    Am7
    Better off left alone
    
    Chorus:
    Dm7
    Cause…
  • Intro + Bridge:
    e|----------------|
    B|----------------|
    G|----------------| 
    D|-2-2--2-2--2-2--| Repeat
    A|-2-2--2-2--2-2--|
    E|-0-0--0-0--0-0--|
         PM
    
    Verse + Chorus
    e|-------------------------------|
    B|-------------------------------|
    G|-------------------------------|
    D|-------------------------------|
    A|----5h7-5----------------------|
    E|--0-------7--5h7-5--5h73-3h5--|
    
    Guitar…
  • Note the open G tuning & use a slide. Play the G note's with 
    your thumb, slightly muted.
    
    D :----------------|----------------|----------------|----------------|
    B :----------------|----------6-----|8-6-------------|----------6-----|
    G…
  • VERSE: (0:00-0:13)
    0:00-0:03
    e|---------------------------------------------------------------------------|
    B|---------------------------------------------------------------------------|
    G|-9-9-----------------------------------------------------------------------|
    D|-9-9---------5-------------------------------------------------------------|
    A|-7-7-5---5-7---7-5---------------------------------------------------------|
    E|-------7-----------7-5-----------------------------------------------------|
    
    0:03-0:07
    e|---------------------------------------------------------------------------|
    B|---------------------------------------------------------------------------|
    G|-9-9-----------------------------------------------------------------------|
    D|-9-9---------5-7b9r7-5-7-5-------------------------------------------------|
    A|-7-7-5---5-7---------------7-----------------------------------------------|
    E|-------7-------------------------------------------------------------------|
    
    0:07-0:10
    e|---------------------------------------------------------------------------|
    B|---------------------------------------------------------------------------|
    G|-9-9-----------------------------------------------------------------------|
    D|-9-9---------5-------------------------------------------------------------|
    A|-7-7-5---5-7---7-5---------------------------------------------------------|
    E|-------7-----------7-5-----------------------------------------------------|
    
    0:10-0:13
    e|---------------------------------------------------------------------------|
    B|---------------------------------------------------------------------------|
    G|-9-9-----------------------------------------------------------------------|
    D|-9-9-----------------------------------------------------------------------|
    A|-7-7-5---5-----------------------------------------------------------------|
    E|-------7---3-5-7-----------------------------------------------------------|
    
    REPEAT…
  • Open G Tuning
    
    Intro/main riff (with slide)
    d---------------------------------------------------------------------------|
    b-------------------------------------------------------------------/12--12-|
    g-----------------------------------------3------5-------3----------/12--12-|
    d----5----5-------5---3p-0---------------3-------5------3-----------/12--12-|
    g----0----0----0-------------3~----0-----3------5-------3------0------------|
    d---------------------------------------------------------------------------|
    
    d--------------------------------------------------------------------------|
    b---------------------------------------------------------------3----0-----|
    g-----------------------------------------3------5-------3------3----0-----|
    d----5----5-------5---3p--0---------------3------5-------3------3----0-----|
    g----0----0----0-------------3~----0-----3------5-------0------------------|
    d--------------------------------------------------------------------------|
    
    d---------------------------------------------------------------------------|
    b-------------------------------------------------------------------/12--12-|
    g-----------------------------------------3------5-------3----------/12--12-|
    d----5----5-------5---3p--0--------------3-------5-------3----------/12--12-|
    g----0----0----0-------------3~----0-----3------5-------3------0------------|
    d---------------------------------------------------------------------------|
    
    d--------------------------------------------------------------------------|
    b---------------------------------------------------------------10/12------|
    g-----------------------------------------3------5-------3------10/12------|
    d----5----5-------5---3--0---------------3------5--------3------10/12------|
    g----0----0----0-------------3~----0-----3------5-------0------------------|
    d--------------------------------------------------------------------------|
    
    Verse:
    d-----------------------------------------------------------------------------|
    b-----------------------------------------------------------------------------|
    g------5-------3------0---------------5------3-------0------------------------|
    d------5-------3------0---------------5------3-------0------------------------|…
  • Tuning: Standard
    
    Intro:
    e|-----3--------------3---------------------------|
    B|-----3--------------3---------------------------|
    G|-----4--------------4---------------------------|
    D|-----5------3-------5----3b5r3p1------5^~~~-----|
    A|-----5--3/5----x----5-------------3-------------|
    E|---3--------------3-----------------------------|…
  • C
    ----0-0---0-0----0-0---0-0-|
    ----1-1---1-1----1-1---1-1-|
    ----0-0---0-0----0-0---0-0-|
    --------2------------2-----|
    --3------------3-----------|
    ---------------------------|
    
     C                  F
    ----0-0---0-0----0-0---0-0----1-1---1-1----1-1---1-1-|
    ----1-1---1-1----1-1---1-1----1-1---1-1----1-1---1-1-|
    ----0-0---0-0----0-0---0-0----2-2---2-2----2-2---2-2-|
    --------2------------2------3------------3-----------|
    --3------------3------------------3------------3-----|
    -----------------------------------------------------|…
Наверх