Аккорды «The Bouncing Souls»

The Bouncing Souls
The Bouncing Souls - панк-группа из США (Нью Брансвик, штат Нью-Джерси), основана в 1987-м году. Название группы (примерный перевод - "Пружинящие души", "воздушные души") заимствовано из рекламы популярной в панк-культуре обуви Доктор Мартинс (Dr. Martens), в описании которой используется словосочетание "with Bouncing Soles" (подошвы с воздушной прослойкой). В названии группы использована игра слов с заменой sole (подошва) на soul (душа). На данный момент The Bouncing Souls одна из наиболее… Читать полностью... The Bouncing Souls - панк-группа из США (Нью Брансвик, штат Нью-Джерси), основана в 1987-м году. Название группы (примерный перевод - "Пружинящие души", "воздушные души") заимствовано из рекламы популярной в панк-культуре обуви Доктор Мартинс (Dr. Martens), в описании которой используется словосочетание "with Bouncing Soles" (подошвы с воздушной прослойкой). В названии группы использована игра слов с заменой sole (подошва) на soul (душа). На данный момент The Bouncing Souls одна из наиболее известных и успешных групп родом из Нью-Джерси наряду с Adrenalin O.D. и The Misfits. За 25 лет существования команда выпустила 9 студийных альбомов: 1994 - The Good, The Bad & The Argyle 1996 - Maniacal Laughter 1997 - The Bouncing Souls 1999 - Hopeless Romantic 2001 - How I Spent My Summer Vacation 2003 - Anchors Aweigh 2006 - The Gold Record 2010 - Ghosts on the Boardwalk 2012 - Comet Скрыть...
Популярные аккорды The Bouncing Souls:
алфавиту | просмотрам | случайно
  • Intro:
    e|---------------------------------------------------------------------------|
    B|---------------------------------------------------------------------------|
    G|---------------------------------------------------------------------------|
    D|--7---------7-x-----play…
  • INTRO
    1:----------------2222---
    2:----3---3--2222-3333---
    3:---2-2-2-2-2222-2222---
    4:--4---5----2222--------
    5:-----------0000--------
    6:-----------------------    REPEAT TWICE
    
    1:--3333-2222------2222--3333-2222------2(Let…
  • Intro
    
    Strum each powerchord 1 time
    -----------------------------
    -----------------------------
    -10---5---12-----------------
    -10---5---12----------------- X2
    -8----3---10-----------------
    -----------------------------
    
    Verse
    
    Riff…
  • |-|_|-/---|-------------------r--|--------------r--------r--| 
    |---|/----|-------------------e--|--------------e--------e--| 
    |---/-|_|-|-------------------s--|--------------s--------s--| x4
    |--/----|-|--7---7---5--5--5--t--|--0--0--0--0--t--0--0--t--|…
  • intro and verse
    G:----------------------------------
    D:----------------------------------
    A:--------7-77-77775-5-5557-77-7777-
    E:-5-5-555--------------------------
    
    
    G:------------------------------
    D:-7--7--7-6-5-4---------4-5-6--
    A:---------------7--7--7--------
    E:------------------------------
    
    
    end…
  • Intro 
    E5 
    e ----------------------------| 
    b ----------------------------| 
    g --9-9-9-9-9-9-9-9-9-9-9-9---| 
    d --9-9-9-9-9-9-9-9-9-9-9-9---| 
    a --7-7-7-7-7-7-7-7-7-7-7-7---| 
    e ----------------------------| 
    
    Verse 
    E5…
  • ------------------------------------------------
    ------------4-----------54-------------------------------54-
    -555-555---555-555----222-222-45-333-5555555----
    ------------------------------------------------
    INTRO/OUTRO
    
    -------------------------------------------------------------------
    -------------------------------------------------------------------
    -------------------------------------------------------------------5-
    -3333333-5555555-7777777-55555555-333333-555555---
    LAST…
  • ------------------------------------------------------------
    ------------------------------------------------------------
    -------5555------5555------5555------------5-3-------5-3-------
    -5555------5555------5555------3-34-555-----3-555-----3-555-
    
    ----------------------
    ----------------------
    -------5555------------
    -5555------3333-5555--…
  • play 4 times
    
    G]--------------]
    D]--------------]
    A]-5> 3-------]
    E]----------5--]
    
    play 2 times
    
    G]-------------]
    D]-------------]
    A]-5>-33-----]
    E]--------------]
    
    play 4 times
    
    G]----------------------]
    D]----------------------]
    A]…
  • ------------------------------------------|
    ------------------------------------------|
    ------------------------------------------|
    ------------------------------------------|
    ------------------------------------------|
    -15-15-15-15-15-15-10-10-10-10-10-10------|
    
    ------------------------------------------|
    ------------------------------------------|
    ------------------------------------------|
    ------------------------------------------|
    ------------------------------------------|
    5-5-5-5-5-5-8-8-8-8-8-8-------------------|
    
    Do…
  • G]---------------------]
    D] 0>-2>-3>-5>---]
    A]---------------------]
    E]---------------------]
    
     
    G]--------------]
    D] 3>---------]
    A]-----3>-5---]
    E]---------------]
    
     
    G]------------------]
    D] 5>----3>------]
    A]-----5>----3>--]
    E]------------------]…
  • ---------------------
    ------5555-4444-2222-
    -5555----------------
    ---------------------
    intro
    
    --------------------------------------
    --------------------------------------
    -555555555555-7777-5555555555555
    --------------------------------------------5555-
    verse
    
    ----------------------------------------------
    ---------------------------------4------------
    ---------5555--------------55555---5----------
    -3-5-7-5------5555-3-5-7-5-----------3-5-7-5--
    chorus
    
    -|----------|-----------------------------------------
    -|----------|-------44445545-77-54-------4444-5-7-9-7-
    -|5555555-0-|-55555----------------55555--------------
    -|----------|-----------------------------------------
    Bass…
  • ---------------------------------
    ----55-3-------------------------
    -55------000-34------------------
    ---------------------------------
    Play 6 times
    
    ----55-3-------------------------
    -55------000-34------------------
    ---------------------------------
    ---------------------------------
    play…
  • ------------------000-222-444-555--|----------------------|
    -0----0---0---0------------------------|----777-555444---|
    -----------------------------------------|555------------74--|
    -----------------------------------------|---------------------|
    Intro…
  • G]---------------------]
    D]---------------------]
    A]-----5>-----5>-----]
    E]-3>-----5>---------]
    
    G]-----------------]
    D]-----------------]
    A]------5-----5---]
    E] 5>----5>-----] 
  • -----------------------------------
    -00000-2233333333-----------000000--
    ------------------------33333333---------
    -----------------------------------
    Intro/verse/Chorus1
    
    -----------------------------------------
    -00000-223333333-----------0000-23-0000-23-
    -----------------------3333333-----------------
    -----------------------------------------
    Before…
  • Intro
    
    E|-----------------------
    A|-----------------------
    D|-----------------------
    G|-----------------------
    B|-333333--3333333--3333- Repeat i think like 3 times
    E|-----------------------
    
    Chrous and Verses
    E|-----5*--7*--------------
    A|-7*--5*--7*--------------
    D|-7*--3*--5*--------------
    G|-5*----------------------
    B|-------------------------
    E|-------------------------…
  • G]---------------------]
    D]---------------------]
    A] 7>-----7>-------]
    E]------5>-----5>---]
    
    G]---------------------------]
    D]---------------------------]
    A] 7>-----7--7>-----7---]
    E]------55---------55-----]
    
    G]-----------------------------]
    D]-----------------------------]
    A]-7--7--7>-7/12…
  • Verse
    G|---------------------------------------------------------------------|
    D|---------------------------------------------------------------------|
    A|---5--5--5--5----------------3--3--3--3-------------------------
    E|-----------------5--5--5--5-----------------3--3--3--3-----------|…
  • ---------------------------------------------
    -----222--------222----------222--------222----
    -0-2-----22-0-2-----22-0-2-----22-0-2-----22-
    ---------------------------------------------
    intro
    
    ---------------------------------------------
    -2222-------2222-------2222--------------------
    --------0000-------2222------0000-2222222-------
    ---------------------------------------------
    verse
    
    --------------------------
    --------------2222-----------
    -0000-2222------0000-0000-
    --------------------------
    chorus
    
    ------------------------------------------------------------------------------
    
    -2-2-2-2-2-2-2----------------2-2-2-2-2-2-2-------------------------------------
    
    -----------------2-2-2-2-2-2-2-----------------2-2-2-2-2-2-2-0-0-0-0-0-0-0-2-2-2---
    
    ------------------------------------------------------------------------------
    
    interlude
    
    -------------------------------------
    -----------2-2-2-2-2-2-2---------------
    -2-2-2-2----------------2-2-2-2-2-2-2-
    -------------------------------------…
  • Intro
    Goodbye to me and you.
    Goodbye to the life we knew.
    One last long embrace.
    Let go and walk on through.
    e|-X-----X-----X-----X-----X-----X-|
    B|-0-----0-----0-----0-----0-----0-|
    G|-1-----2-----1-----4-----1-----4-|
    D|-2-----2-----2-----4-----2-----4-|
    A|-2-----0-----2-----2-----2-----2-|
    E|-0-----X-----0-----X-----0-----X-|…
  • E  A  H  H             A  E  A  E  A  E  H  H  E
    e------------------------------------------------------
    a------------------------------------------------------
    d--9-------------------------9-----9-----9--------9----
    g--9--7--9--9-------8x----7--9--7--9--7--9--9--9--9----
    h--7--7--9--9-------------7--7--7--7--7--7--9--9--7----
    e-----5--7--7-------------5-----5-----5-----7--7-------
    
    e------------------------------------------------------
    a------------------------------------------------------
    d--9------------till-the…
  • Tunning:
    Standard (EADGBE)
    
    Intro / Fill:
    Guitar 1 | Slight Distortion:
    E|-2-2--5-3-2-----------------2-2--5-3-2---3---5------------------||
    A|-------------5--------------------------------------------------||
    D|----------------------------------------------------------------||
    G|----------------------------------------------------------------||
    B|----------------------------------------------------------------||
    E|----------------------------------------------------------------||
    
    E|-2-2--5-3-2------------------3----------------------------------||
    A|-------------5------------------5--3----------------------------||
    D|----------------------------------------------------------------||
    G|----------------------------------------------------------------||
    B|----------------------------------------------------------------||
    E|----------------------------------------------------------------||
    
    Guitar…
  • This is the right and technical way to play this song
    G:----------------------------------------------------------------
    D:-----------------7-5-5--------------------------------9-7-7-----
    A:--0-0-4-5 5----------7-5-5-5-5-----0-0-4-7-7---------9-7-7-7-7--
    E:----------------------------------------------------------------
    
    heres…
  • INTRO
    G-----------------------------------------------
    D-----------------------------------------------
    A-555-222---------555-222--------555-222--------
    E---------333-555---------333-555--------333-555
    
    G---------------------------------
    D---------------------------------
    A-555-222---------555-222---------
    E---------333-555---------333-555-
    
    Verse
    G---------------------------------------
    D---------------------------------------
    A-5-----------44-5-------------22----44-
    E-----33-5------------33-5-3----5-------
    
    chours
    G-----------------------------------------------
    D-----------------------------------------------
    A-555-222---------555-222--------555-222--------
    E---------333-555---------333-555--------333-555
    
    G-----------------
    D-----------------
    A-555-222---------
    E---------333-555-
    
    Verse
    G---------------------------------------
    D---------------------------------------
    A-5-----------44-5-------------22----44-
    E-----33-5------------33-5-3----5-------
    
    chours
    G-----------------------------------------------
    D-----------------------------------------------
    A-555-222---------555-222--------555-222--------
    E---------333-555---------333-555--------333-555
    
    G-----------------
    D-----------------
    A-555-222---------
    E---------333-555-
    
    Verse
    G---------------------------------------
    D---------------------------------------
    A-5-----------44-5-------------22----44-
    E-----33-5------------33-5-3----5-------
    
    
    Chours
    G-----------------------------------------------
    D-----------------------------------------------
    A-555-222---------555-222--------555-222--------
    E---------333-555---------333-555--------333-555
    
    G-----------------
    D-----------------
    A-555-222---------
    E---------333-555-
    
    Outro
    G--------------
    D--------------
    A-444444444444-
    E--------------…
  • -----------------
    -----------------
    -777777-555-4-55-
    -----------------
    
    -------------------
    -------------------
    -7777-1010-99-1010-
    -------------------
    
    ---------------
    ---------------
    -7777-1010-999-
    ---------------
    
    --------------
    --------------
    -7-5-7-75-7/5-
    --------------
    outro…
Наверх