Аккорды «The Casualties»

The Casualties
Нью-Йоркская хардкор-панк команда The Casualties существует с 1991-го года, когда вышел первый сингл группы, "40 Ounce Casualty". На раннем этапе состав группы часто менялся: многие музыканты приходили в группу лишь для того, чтобы просто поразвлечься и побухать (это нашло отражение в мини-альбоме с честным названием "Drinking Is Our Way Of Life", и долго в ней не задерживались. Позже, когда из первого состава остался только вокалист Йорг, к которому присоединились басист Рик, барабанщик Меггерс… Читать полностью... Нью-Йоркская хардкор-панк команда The Casualties существует с 1991-го года, когда вышел первый сингл группы, "40 Ounce Casualty". На раннем этапе состав группы часто менялся: многие музыканты приходили в группу лишь для того, чтобы просто поразвлечься и побухать (это нашло отражение в мини-альбоме с честным названием "Drinking Is Our Way Of Life", и долго в ней не задерживались. Позже, когда из первого состава остался только вокалист Йорг, к которому присоединились басист Рик, барабанщик Меггерс и гитарист Джейк, отношение к музыке стало более серьезным, и у группы появилась своя идеологическая позиция. Состав: Jorge - вокал Rick - бас Meggers - ударные Jake - гитара Начало 90-х. Улицы Нью-Йорка безрадостны и опустошены и только лишь несколько панков ищут давным-давно исчезнувшую музыку. Остается им лишь вспоминать славные деньки начала 80-х , от которых, увы, ничего не осталось. Вместо них появился грандж, попса - музыка, которую играли всякие волосатые "поэты " из колледжа и дебильные хиппи. И пока мир прогнивал и разлагался под воздействием этой туфты, несколько пьяных панков задались идеей вернуть панк-року былую славу. Так появились The Casualties! 1990: Jorge - вокал, Colin - вокал, Mark- бас, Yureesh - ударные, Hank - гитара. Была сделана первая демо-запись. Rachel из группы Rivits заменяла Colin'а на бэк-вокале, пока тот доучивался в школе. 1991: Jorge - вокал, Colin - вокал, Mark- бас , Yureesh - ударные, Fred- гитара. Hank уходит из группы, и его заменяет Fred. Они делают свою первую студийную песенку "Political Sin", которая появилась на сборнике "Benefit For Beer". Fred тоже решил, что стоит доучиться, и его временно заменял Scott из ансамбля C Squat. После окончания учебы Fred возвращается в группу, к ним опять присоединяется Hank, но только на несколько концертов. В конце 91-го года они записывают свою первую EP "40 Once Casualty". 1992: Jorge - вокал, Colin - вокал, Mark- бас , Yureesh - ударные , Fred- гитара. Группа постоянно выступает и приобретает большое количество поклонников , зарабатывают репутации. 1993: Jorge - вокал, Colin - вокал, Mike - бас , Yureesh - ударные, Jake - гитара Fred и Mark уходят из группы, на их место приходят Mike и Jake. 1994: Jorge - вокал, Mike - бас , Shawn - ударные, Jake - гитара. Группа записывает песни "For The Punx" и "10 Years Too Late", которые появились на компиляции "Pogo Attack". Также была записана четырехпесенная EP "Drinking Is Our Way Of Life", но появилась она лишь на сборнике "The Early Years: 1990-1995", который был выпущен только в 1999 году. Из группы уходят Colin и Yureesh, новым барабанщиком становится Shawn. 1995: Jorge - вокал, Mike - бас , Meggers - ударные, Jake - гитара. Записана новая EP под названием "Fuckin' Way Of Life". На место Shawn'a приходит барабанщик из Rivits Meggers. 1996: Jorge - вокал, Mike - бас , Meggers - ударные, Jake - гитара. Casualties становятся первой американской группой, которая появилась на легендарном английском фестивале "Holidays In The Sun", проходящем в Лондоне. 1997: Jorge - вокал, Mike - бас , Meggers - ударные, Jake - гитара. Группа добивается большой популярности в новом составе и выпускает свой дебютный альбом "For The Punx", в поддержку которого они отправляются в свое первое американское турне вместе с Varukers. 1998: Jorge - вокал, Jon- бас, Meggers - ударные, Jake - гитара. Mike покидает группу и на его место приходит Jon из "Krays". Выходит их второй студийный альбом "Underground Army". Во время турне в поддержку нового диска группу покидает Jon и на басу примерно полгода играет Dave. 1999: Jorge - вокал, Rick - бас, Meggers - ударные, Jake - гитара. На место Dave'a ( какая патологиская фигня с басистами!!!) приходит Rick из Manix. The Casualties отправляются в свое третье мировое турне и выпускают сборник своих ранних записей "The Early Years: 1990 - 1995". 2000: Jorge - вокал, Rick - бас, Meggers - ударные, Jake - гитара. Casualties добиваются всемирной известности после своего четвертого мирового тура и выпускают "Who's In Control" EP плюс третий альбом "Stay Out Of Order". 2001: Группа, просуществовав 11 лет, сильна как никогда и выпускает свой лучший по мнению многих диск "Die Hards". Ребята опять отправляется в тур, включавший в себя: и Vans Warped Tour, и первый американский Holidays In The Sun, где группа выступала среди легендарных музколлективов типа Exploited, G.B.H., Cockney Rejects, Slaughter And The Dogs и многих других. И это еще не конец… The Casualties продолжали производить высококачественные-энергичные записи, также они совершили туры по США и другим странам(таким как, Европа, Япония и Мексика).Альбом “Under Attack” был выпущен на SideOneDummy Records в 2006 году, и они устраивали туры практически без перерыва в течение 3 лет в поддержку этого альбома. Их новый альбом “We Are All We Have”, был выпущен на лейбле SideOneDummy 25 августа 2009 года Все члены группы предпочитают разные стили от европейского панка до американского хардкора, из-за этого при записи альбома ребята ищут компромисс. The Casualties отстаивают интересы рабочего класса, к которому всегда принадлежали сами и члены их семей. Парни написали несколько политически направленных композиций, но стараются не углубляться в политику, а то, по словам вокалиста Джорджа, человека могут использовать, как марионетку. Джейк Коллинз: Чем более капиталистической становится Америка, тем труднее и труднее выжить низшим классам, потому что мы выгребаем все из своего бумажника. Это похоже на место, где можно было просто жить, но сейчас они находят все больше и больше вещей о которых пишут законы, и этим они отбирают у нас еще немного свободы. Джордж Херрера: Один раз мы собрались на нашем любимом углу. В это время я расстался с девушкой — ну, ты знаешь, как это в молодости бывает. Так вот, одна забавная штука — другие ребята в группе (а скорее тогда мы ещё пытались ей быть) тоже остались без своих подруг. Мы играли песню «Casualty» («Жертва») ирландской группы The Defects, и решили: «А давайте станем Casualties»… Мы подумали, что это подходящее имя. А член другой группы под названием Public Nuisance, выдвинул свою теорию по поводу нашего названия. Он сказал: «Вы, парни, всегда пьяные, так что почему бы вам не назваться 40 Ounce Casualties» («Жертвы сорока унций»), потому что ежедневно мы выпивали 40 унций пива. Позже по этому поводу у нас родилась песня, да и свой первый мини-альбом мы так и назвали. Позже мы стали просто The Casualties. До этого нашим именем назывались «четыре больших парня с забавными ботинками» Скрыть...
Популярные аккорды The Casualties:
алфавиту | просмотрам | случайно
  • Intro 1: 
    e|--------------------------------------------------------| 
    B|--------------------------------------------------------| 
    G|--------------------------------------------------------| 
    D|-----------------6-----6-----7--9--7-----7--9--11--9--7-|…
  • Intro x2
    
    e|--2-----2--4--0--4--2-----2--0--7--6--4--|   
    B|-----0-----------------------------------|   
    G|-----------------------------------------|
    D|-----------------------------------------|
    A|-----------------------------------------|
    E|-----------------------------------------|
    
    
    Verse1
    
    e|--------------------------------------------------------------------|
    B|--------------------------------------------------------------------|
    G|----11--11--11--11--11--11-----9--9--9--9--9--9---13--------13------|
    D|----11--11--11--11--11--11-----9--9--9--9--9--9---13----14--13--14--|
    A|----9---9---9---9---9---9------7--7--7--7--7--7---11----14--11--14--|
    E|--------------------------------------------------------12------12--|
    
    
    Verse2…
  • intro
    e|---------------------------------------------------------------------------|
    B|---------------------------------------------------------------------------|
    G|--6666--------------9999--------------986----------------------------------|
    D|--6666-----6666-----9999-----9999-----986----------------------------------|
    A|--4444-----6666-----7777-----9999-----764----------------------------------|
    E|-----------4444--------------7777------------------------------------------|
    
    
    Chorus
    e|---------------------------------------------------------------------------|
    B|---------------------------------------------------------------------------|
    G|--99999999-----99999999----------------------------------------------------|
    D|--99999999-----99999999----99999999----7777----9999------------------------|
    A|--77777777-----77777777----99999999----7777----9999------------------------|
    E|--00000000-----------------77777777----5555----7777------------------------|
    play…
  • e|---------------------------------------------------------------------------| 
    B|---------------------------------------------------------------------------| 
    G|---------------------------------------------------------------------------|…
  • intro
    ---------------------------------------
    ---------------------------------------
    -----------99999999----------777---777-
    --77777777-99999999-55555555-777-7-777-
    --77777777-77777777-55555555-555-7-555-
    --55555555----------33333333-----5-----
    pm........…
  • Intro:  -------------
            -------------
            -7-7-7-------
            -7-7-7-7-7-7-
            -5-5-5-7-7-7-      x1
            -------5-5-5-
    
    Verse:  ------------------------------------
            ------------------------------------…
  • Intro
     ----------------------------------------
     ----------------------------------------
     ----------------------------------------
     1/7-9-9--9-9-9--9-9-9-10-9-9-7---7-5-4--
     ----------------------------------------
     ----------------------------------------…
  • Standard Tuning
    
    Punk Rock Distortion
    
    
    Intro
    
    e--------------------------------------------------------------------|
    B--------------------------------------------------------------------|
    G-7--5-2-7-10--7--5-2-12--10-----------------------------------------|
    D-7--5-2-7-10--7--5-2-12--10-----------------------------------------|
    A-5--3-0-5-8---5--3-0-10--8------------------------------------------|
    E--------------------------------------------------------------------|
    
    
    Bridge
    
    e--------------------------------------------------------------------|
    B--------------------------------------------------------------------|
    G-5/777-5/777-5/777-5/777-5/777-5/777-5/777-5/777--------------------|
    D-5/777-5/777-5/777-5/777-5/777-5/777-5/777-5/777--------------------|
    A-3/555-3/555-3/555-3/555-3/555-3/555-3/555-3/555--------------------|
    E--------------------------------------------------------------------|
    
    
    Chorus/Verses
    
    e--------------------------------------------------------------------|
    B--------------------------------------------------------------------|
    G-7777--5555-2222-7777-10101010--7777--5555-2222-12121212--10101010--|
    D-7777--5555-2222-7777-10101010--7777--5555-2222-12121212--10101010--|
    A-5555--3333-0000-5555-8-8-8-8---5555--3333-0000-10101010--8-8-8-8---|
    E--------------------------------------------------------------------|
    
    
    Solo
    
    e--------------------------------------------------------------------|
    B----------------------------------------------------------------55-8|
    G-5-3---3-5-3---3-5-3---3-5-5b--5-3-------------3-----xxxx-55-77-----|
    D-----5-------5-------5-------------3-0--3--0-3---3-5-xxxx-----------|
    A--------------------------------------------------------------------|
    E--------------------------------------------------------------------|
    
    e--------------------------------------------------------------------|
    B8-55----------------------------------------------------------------|
    G-----7-5------------------------------------------------------------|
    D---------5-3-0------------------------------------------------------|
    A--------------------------------------------------------------------|
    E--------------------------------------------------------------------|
    
    
    (Glassbreaking…
  • RIFF A
    e   -----------------------------------------------|
        -----------------------------------------------|
        ---------------------6-6-6-6-6-6-6-6-6---------|
        -6-6-6-6-6-6-6-6-6---6-6-6-6-6-6-6-6-6---------|…
  • Intro 
    e|------------------------------ 
    B|------------------------------ 
    G|------------------------------ 
    D|-----9---7-7-7-6-4------------
    A|---7---7-----------7----------
    E|------------------------------ 
    
    
    chorus
    e|-----------------------------------------------
    B|-----------------------------------------------…
  • Intro 
    e|---------------------------------| 
    B|---------------------------------| 
    G|---------------------------------| 
    D|-10-----12-13-----12-8-----10----|Play twice 
    A|-------------------------10------| 
    E|---------------------------------|…
  • Standard tuning (low to high): E A D G B E    /=slide *=let ring
    
    
    Intro:
    e|-----------------------
    B|-----------------------
    G|-----------------------
    D|---7/9--7/9--5-----5*--
    A|----------------7------
    E|-----------------------
    
    Intro…
  • E/----------------------------------------------------|
    B|----------------------------------------------------|
    G|------5---------------------------------------------|
    D|-7----3--5------------------------------------------|
    A/-5--5----3------------------------------------------|
    E|----3-----------------------------------------------|
    
    E/----------------------------------------------------|
    B|----------------------------------------------------|
    G|-5--7--------------5--9-----------------------------|
    D|-3--5-7--5--7--5---3--7--7--5--7--5-----------------|
    A/------5--3--5--3---------5--3--5--3-----------------|
    E|----------------------------------------------------|
    
    E/----------------------------------------------------|
    B|----------------------------------------------------|
    G|----------------------------------------------------|
    D|-7-----5--------------------------------------------|
    A/-5--7--3--5-----------------------------------------|
    E|----5-----3-----------------------------------------|
    
    play…
  • intro
    e|--------------------------------------------
    B|--------------------------------------------
    G|--------------------------------------------
    D|-----------------------7-777-5--------------
    A|--------5--7-777-9-7-9---------7-777-5-7-5--
    E|---7-77-------------------------------------…
  • Tuning: use a chromatics tuner
    
    
    intro, just palm mute a bunch of times
    e|---------------------------------------------------------------------------|
    B|---------------------------------------------------------------------------|
    G|---------------------------------------------------------------------------|
    D|---------------------------------------------------------------------------|
    A|---9-----------------------------------------------------------------------|
    E|---7-----------------------------------------------------------------------|
    
    e|---------------------------------------------------------------------------|
    B|---------------------------------------------------------------------------|
    G|----11---------------------------------------------------------------------|
    D|----9--11--12--9--7--9-----------------------------------------------------|
    A|-9-----9---10--7--5--7-----------------------------------------------------|
    E|-7-------------------------------------------------------------------------|
    
    
    chorus
    e|---------------------------------------------------------------------------|
    B|---------------------------------------------------------------------------|
    G|---------7--6--------------------------------------------------------------|
    D|-7-------5--4--------------------------------------------------------------|
    A|-5--7--9-------------------------------------------------------------------|
    E|----5--7-------------------------------------------------------------------|
    
    
    bass…
  • intro/verse
    e|--------------------|
    B|--------------------|
    G|11111111-5/7-7/2----|
    D|11111111-5/7-7/2----|
    A|-9-9-9-9-3/5-5/0----|
    E|--------------------|
    
    
    chorus
    e|-----------------------------------------------------------|
    B|-----------------------------------------------------------|
    G|---------------9999-1111111111111111-9-1111111111111111----|
    D|-99999999-7777-9999-1111111111111111-9/1111111111111111----|
    A|-99999999-7777-7777--9-9-9-9-9-9-9-9-7/-9-9-9-9-9-9-9-9----|
    E|-77777777-5555---------------------------------------------|
    
    
    outro…
  • Tuning: Standard EADGBE
    
    
    Intro
    e|---------------------------------------------------------------------------|
    B|---------------------------------------------------------------------------|
    G|---------------------------------------------------------------------------|
    D|----7-------7------7-------------------------------------------------------|
    A|----7-------7------7-------------------------------------------------------|
    E|----5-------5------5-----pick…
  • intro/verse 
    e|-------------------------------------------| 
    B|-------------------------------------------| 
    G|---------------------------------7-7-7-8-7-| 
    D|-7-7-7-7-9-10-10-9-10-10-7-7-7-7-7-7-7-8-7-| 
    A|-7-7-7-7-9-10-10-9-10-10-7-7-7-7-5-5-5-6-5-|…
  • INTRO:
    e|----------------------------------------------------------------|
    B|----------------------------------------------------------------|
    G|---11-11-11-11--------------------------------------------------|
    D|---11-11-11-11-11-9-8-8-8-8-9-9-8-9-----------------------------|
    A|----9--9--9--9-11-9-8-8-8-8-9-9-8-9-----------------------------|
    E|----------------9-7-6-6-6-6-7-7-6-7-----------------------------|
    
    
    VERSE:
    e|----------------------------------------------------------------|
    B|----------------------------------------------------------------|
    G|---11-11-11-11-11-11--------------------------------------------|
    D|---11-11-11-11-11-11-11-9-8-8-8-8-9-9-8-9-----------------------|
    A|----9--9--9--9--9--9-11-9-8-8-8-8-9-9-8-9-----------------------|
    E|----------------------9-7-6-6-6-6-7-7-6-7-----------------------|
    repeat…
  • e|------------------------------------------------------|
    B|------------------------------------------------------|
    G|------------------6-7---------------------------------|
    D|-9----6-7---4-7-7-----6-7-6---------------------------|
    A|-7--7-----5-------------------------------------------|
    E|------------------------------------------------------|
    
    
    e|------------------------------------------------------|
    B|------------------------------------------------------|
    G|------------------6-7---------------------------------|
    D|-----6-7---4-7-7-----6-9-7----------------------------|
    A|---7-----5--------------------------------------------|
    E|------------------------------------------------------|
    
    
    e|------------------------------------------------------|
    B|------------------------------------------------------|
    G|--------9-8-9-----------------------------------------|
    D|--9--7--7-6-7-----------------------------------------|
    A|--7--5------------------------------------------------|
    E|------------------------------------------------------|
    
    
    e|------------------------------------------------------|
    B|------------------------------------------------------|
    G|-----9--8--11-----------------------------------------|
    D|9-7--7--6--9------------------------------------------|
    A|7-5---------------------------------------------------|
    E|------------------------------------------------------|
    
    
    e|------------------------------------------------------|
    B|------------------------------------------------------|
    G|------------------------------------------------------|
    D|--11--12-11--12---------------------------------------|
    A|--9---10--9--10---------------------------------------|
    E|------------------------------------------------------|…
  • intro 
    e|-----| 
    B|---7-| 
    G|-----| 
    D|-9---| 
    A|-9---| 
    E|-7---| 
    
    
    verse 
    e|---------------------| 
    B|---------------------| 
    G|-----11-7-11-9-7-7-7-| 
    D|-9-9-11-7-11-9-7-7-7-| 
    A|-9-9--9-5--9-7-5-5-5-| 
    E|-7-7-----------------|…
  • intro/bridge/outro 
    e|-------------| 
    B|-------------| 
    G|--9--7-------| 
    D|--9--7--7--2-| 
    A|--7--5--7--2-| 
    E|--------5--0-| 
    
    
    verse 
    e|---------------| 
    B|---------------| 
    G|-9-9-9-7-----9-| 
    D|-9-9-9-7-7-5-9-| 
    A|-7-7-7-5-7-5-7-|…
  • Intro: 
    
    G|---------------------------------------------------------------------------|
    D|---------------------------------------------------------------------------|
    A|-------------------------------------------------55555555-44444444---------|
    E|-777777777777777-3333333-5555555-777777777777777---------------------------|
    
    
    Verse:…
  • Notice: they are played one and then palm muted 4x
               
                   PPPPPPPPPPP   PPPPPPP   PPPPPPP   PPPPPPP
       e------------------------------------------------------------
       b------------------------------------------------------------…
  • intro 
    e|-----------------| 
    B|-----------------| 
    G|------12--9--9---| 
    D|-9--9-12--9--9-9-| 
    A|-9--9-10--7--7-9-| 
    E|-7--7----------7-| 
    
    
    verse 
    e|----------------------------------------| 
    B|----------------------------------------|…
  • standard tuning
     
    
    intro: prt.1
    e-------------------------------------------
    B-------------11-----------------------9----
    G---8------11----11--------10--------9---9--
    D-9---9----11-------11--11----11-----9-----9 
    A-9-----9---9-----------11-------11--7------
    E-7----------------------9------------------
    
    e-------------------------------------------------------------------------
    B-------------------11-11--------------------------------------9-9--------
    G---8-8----------11-------11-11-----------10-10--------------9-----9-9----
    D-9-----9-9------11-------------11-11--11-------11-11--------9---------9-9
    A-9---------9-9---9--------------------11-------------11-11--7------------
    E-7-------------------------------------9---------------------------------
    
    
    intro:…
  • Tuning:  regular
    
    e|---------------------------------------------------------------------------
    B|---------------------------------------------------------------------------
    G|---------------------------------------------------------------------------
    D|--7-7-7-7------------------------------------------------------------------
    A|--5-5-5-5--5-5-7-----------------------------------------------------------
    E|-----------3-3-5-----------------------------------------------------------
    
    this…
  • e|----------------
    B|----------------
    G|--------------9-
    D|-9-9--9-8-5-8-9-
    A|-9-9--9-8-5-8-7-
    E|-7-7--7-6-3-6---  x 13
    
    
    End on
    e|---
    B|---
    G|---
    D|-2-
    A|-2-
    E|-0-
  • *=palm mute
    
         listen to the song so you no the beat 
    
             e-----------------------------------------------------
             b-----------------------------------------------------
             g-----------------------------------------------------…
  • intro 
    e|--------------| 
    B|--------------| 
    G|--------------| 
    D|-9-9--4-4-5-5-| 
    A|-9-9--4-4-5-5-| 
    E|-7-7--2-2-3-3-| 
    
    
    verse 
    e|-------------| 
    B|-------------| 
    G|-------9-7-7-| 
    D|-9-9-9-9-7-7-| 
    A|-9-9-9-7-5-5-| 
    E|-7-7-7-------|…
  • verse 
    e|------------------------| 
    B|------------------------| 
    G|-9-9-9-9-9-9-7-12-9-9-9-| 
    D|-9-9-9-9-9-9-7-12-9-9-9-| 
    A|-7-7-7-7-7-7-5-10-7-7-7-| 
    E|------------------------| 
    
    
    chorus 
    e|---------------------| 
    B|---------------------|…
  • intro/verse pt1 
    e|-------------------| 
    B|-------------------| 
    G|-9---9---12-12-7-7-| 
    D|-9-9-9-9-12-12-7-7-| 
    A|-7-9-7-9-10-10-5-5-| 
    E|---7---7-----------| 
    
    
    verse pt2 
    e|------------------------------------------|…
Наверх