Аккорды «UFO»

UFO
UFO — британская рок-группа, образованная в 1969 году. Внесла существенный вклад в формирование стиля «хэви-метал» и оказала большое влияние на становление многих классических металических групп (Iron Maiden, Metallica, Megadeth и др.), активна и в настоящее время. Группа, образованная в 1969 году Филом Моггом (вокал), гитаристом Миком Болтоном, басистом Питом Вэем и барабанщиком Энди Паркером, поначалу носила название «Hocus Pocus», но довольно быстро поменяла вывеску на «UFO» в честь одного… Читать полностью... UFO — британская рок-группа, образованная в 1969 году. Внесла существенный вклад в формирование стиля «хэви-метал» и оказала большое влияние на становление многих классических металических групп (Iron Maiden, Metallica, Megadeth и др.), активна и в настоящее время. Группа, образованная в 1969 году Филом Моггом (вокал), гитаристом Миком Болтоном, басистом Питом Вэем и барабанщиком Энди Паркером, поначалу носила название «Hocus Pocus», но довольно быстро поменяла вывеску на «UFO» в честь одного из лондонских клубов. Первые два альбома имели большой успех в Германии и Японии, у себя же на родине музыканты признания не имели. В 1974-м из группы ушел Мик Болтон, и его временно подменил Ларри Валлис в конце того же года, ушедший в «Pink Fairies». Еще немножко в «UFO» поиграл Берни Марсден (экс-«Skinny cat»), пока наконец-то не появился «постоянщик» Михаэль Шенкер (ранее гитарист Scorpions). Бывший «скорпион» привнес в саунд группы более хардовое гитарное звучание, что нашло отражение на пластинке 1974 года «Phenomenon». Диск содержал два трека, ставших классикой рока, «Rock Bottom» и «Doctor Doctor». После множества выступлений в европейских клубах «UFO» попытались покорить Америку, нанеся визит в Лос-Анжелес. И хотя «Phenomenon» не попал в «биллбордовские» чарты, журнал «Rolling Stone» предсказал команде большое будущее. Альбом «Force It», как и его предшественник, продюсировался басистом «Ten years after» Лео Лайонсом, а в записи пластинки принял участие его коллега - клавишник Чик Черчилл. После выхода диска группа вновь отправилась за океан, всю осень проведя там на гастролях. Для записи диска «No Heavy Petting» в команду был приглашен клавишник Дэнни Пейронел. Правда, он не слишком долго пробыл в коллективе, и уже к концу 1976-го на его месте оказался Пол Рэймонд из «Savoy brown». Дебют Пола состоялся на аншлаговых концертах в знаменитом лондонском клубе «Марки». После выхода «Lights Out» из «UFO» ушел Михаэль Шенкер, вернувшийся в «Scorpions». Поскольку срочно нужна была замена для американского турне, в команду был срочно приглашен уже игравший в ней ранее какое-то время Пол Чапмен. Шенкер, правда, поучаствовал в европейских гастролях, но затем снова уступил место Чапмену. Его дебютной студийной работой стал альбом 1979 года «No Place to Run». Постепенно из разогревающей группы «UFO» переросли в хедлайнеров, в качестве каковых они и выступили на фестивале в Ридинге. Как раз перед этим событием Рэймонда сменил клавишник и ритм-гитарист Нейл Картер. Пол же вскоре пристроился к Шенкеру в его новом проекте «Michael Schenker group». В 1981-м «UFO» записали сильный альбом «The Wild, The Willing And The Innocent», на котором присутствовали эксперименты со струнной секцией. Несмотря на хорошие продажи пластинки и успешный американский тур в компании с Оззи Осборном, басист Пит Вэй остался недовольным направлением ансамбля и вскоре заявил о своем выходе из коллектива. Пришлось Чапмену исполнять басовые партии на сессиях следующего альбома. На европейское турне был приглашен Билли Шихан, но вскоре его сменил Пол Грэй, манера исполнения которого была близка к стилю Вэя. В 1983-м группа приостановила свою деятельность, а музыканты занялись другими проектами. Год спустя «UFO» приступили к работе в обновленном составе: Могг, Томми Макклендон (гитара), Грэй, Рэймонд и Робби Франс (ударные). Последний не так уж долго продержался в группе, и его сменил барабанщик из «Magnum» Джим Симпсон. После очередных европейских гастролей перестановки продолжились, и за клавишными вместо Рэймонда оказался друг Макклендона Дэвид Якобсон. После выхода «Misdemeanour» команда вновь была распущена. Последующие два года Могг изредка пытался реанимировать «UFO» в различных конфигурациях. Наконец в 1992 году в составе – Могг, Лоренс Арчер (гитара), Вэй, Клайв Эдвардс (ударные) – группа записала новый студийник «High Stakes And Dangerous Men». Отыграв несколько аншлаговых концертов в Японии, Арчер и Эдвардс ушли от Могга и Вэя, поскольку те загорелись идеей возрождения «классического» состава образца 1978-го. В 1993-м эту идею воплотили в жизнь – за гитару взялся Шенкер, за клавишные встал Рэймонд, ну а за барабаны посадили Саймона Райта. Однако во время американского тура Шенкер опять загадочно куда-то испарился, поставив под вопрос существование «UFO». Обнаружился он в команде лишь в 1998-м во время японских гастролей. На сессиях альбома 2000 года в группе обнаружился новый ударник Эйнсли Данбар. Вместе с ним Могг, Шенкер и Вэй в 2002-м записали диск «Sharks». Результатом долгожданного турне группы UFO по Великобритании стал устроенный на сцене зала «Apollo» в Манчестере беспорядок во время их третьего (за время турне) концерта. Гастролируя с целью раскрутки своего нового альбома «Covenant», музыканты группы вскоре поняли, что с гитаристом Майклом Шенкером (Michael Schenker) не все в порядке. Во время исполнения трех первых номеров (все они входят в состав нового альбома группы) на концерте Майкл все время путался и запинался, играя соло. Действительно, поведение Шенкера в течение всего концерта было странным, шатаясь по сцене, он то и дело решительно наскакивал на басиста Пита Уэя (Pete Way), почти пренебрегая игрой во время исполнения наиболее известных песен коллектива. На сцене перед недоверчивыми манчестерскими поклонниками Шенкер встал на колени напротив вокалиста Фила Могга (Phil Mogg), скорчил ему омерзительную рожу, затем расстроил свою знаменитую гитару («Flying V») и попытаться вручить ее ошарашенному вокалисту. Это объясняется тем, что и без того натянутые отношения между Моггом и Шенкером стали еще хуже из-за инцидента, происшедшего предыдущей ночью после концерта в Ньюкастле. Шенкер был вовлечен в ссору с бывшими участниками Quireboys Спайком (Spike) и Найджелом Моггом (Nigel Mogg) (двоюродным братом Фила), и результатом перебранки стали синяки под глазами Шенкера, которые были очень хорошо заметны зрителям в Манчестере. Те, кто находился ближе остальных к сцене, смогли увидеть накаляканное на лбу гитариста слово «Spiked» и изуродованные глаза с отметинами под ними. «Чего вы ожидали, нормального выступления нормальной группы?» - удивляется Могг, говоря об обилии «странных сцен» во время концерта. Шенкер и Могг постоянно пропускали свои соло и текст соответственно. Люди, приближенные к группе, говорят, что до этого Шенкер весь день пил, несколько раз он залпом выпивал неизвестного рода жидкость. Шоу зашло так далеко, что после исполнения «Love To Love» в толпе начали раздаваться неодобрительные возгласы в адрес Шенкера. Гитарист решил ответить на это, он вышел на середину сцены, взял у Могга микрофон и оглушил аудиторию репликой: «Все вы дерьмо!», а затем вернулся на свое прежнее место и закричал: «И я тоже дерьмо!» После заметных спотыканий во время исполнения «Rock Bottom» Могг бросил свой пиджак в толпу, и коллектив удалился под хор ругательств. Какой-то поклонник выбросил ранее приобретенную атрибутику группы на пол, а остальные все вместе пошли к кассам требовать возмещения убытков. Невероятно, но Шенкер после этого вернулся на сцену и промямлил уходящей толпе: «Спасибо. Спасибо всем «на добром слове». Позже источники «Apollo Theatre» сообщили, что Шенкер собирался пойти в фойе подписывать автографы, однако разум все же остановил его. Остальные концерты, запланированные в турне, были отменены, официально по той причине, что Фил Могг подхватил ларингит. Правда, было неизвестно, будут ли перенесены даты выступлений, или они не состоятся вовсе. Раньше музыканты UFO ни в чем не сомневались, теперь же, после их провала, о будущем группы было ничего определенного неизвестно… После ухода из группы Майкла Шенкера, на его место был приглашен Джон Норум (ex- EUROPE, DOKKEN), но тот отказался, поскольку был занят в записи своего сольного альбома. 30 июля 2003 года гитарист-виртуоз Винни Мур официально подтвердил свое участие в группе UFO, заменив там Майкла Шенкера. Вместе с вокалистом Филом Моггом, басистом Питом Уэйем, клавишником Полом Рэймондом и ударником Джейсоном Бонхемом они начали готовиться к записи нового альбома группы. С новым гитаристом было выпущено ещё 2 диска - The Monkey Puzzle( 2006) и The Visitor (2009), выдержанных в лучших традициях. Состав Vocals - Phil Mogg Keyboards - Paul Raymond Bass - Pete Way Drums - Andy Parker Lead Guitar - Vinnie Moore Скрыть...
Популярные аккорды UFO:
алфавиту | просмотрам | случайно
  • Solo:
    
      Am                               Am  (Solo starts here)
    e|----------------0---------------|0-------------------------------|
    B|------------1-------1-----------|1-----------------------5-------|
    G|--------2---------------2-------|2-------2-------5---------------|
    D|----2-----------------------2---|2-------------------------------|
    A|0-------------------------------|0-------------------------------|
    E|--------------------------------|--------------------------------|…
  • (tune down one step)
    	
    
    Am            Em 
    Oh belladonna, never knew the pain
    C                                       Dm  G
    Maybe I'm crazy, maybe it'll drive me insane
    Am                  Em  
    The open letter just carelessly…
  • intro/main riff
                   
           E--------------------------------------------------------------------------------|
           B------------------------9--9--10-10-10-9----------------------------------------|
           G------------------------9--9--9---9--9--9---------------------------------------|…
  • Tuning          	  Standard
            Tempo                   120 bpm approx
    
    This is the version that I have on CD but the live version has a lot more
    verses
    
    Intro
        G|-----------------|-----------------|-----------------|-----------------|…
  • Em                                      D        
    
    E|--------------------------|----12------|---14-15-14---15| 
    B|(15pb17)r16b17-r16-b17-r16|b17----15b17|15--------------| 
    G|--------------------------|------------|----------------|…
  • Main Riff
     
    E-----------------------------------------------------------------
    B-----------------------------------------------------------------
    G-----------------------------------------------------------------
    D----7---5-------5-------------------7---5-------5---------------5-
    A------------6-7---------5h7p5---------------6-7---------5h7p5-----
    E-00---0---0-------0-6-7-------7-0-0---0---0-------0-6-7-------7---…
  • w     w     w     w     w     w     w     w       q  q  h        
    G---|--r--|--r--|--r--|--r--|--r--|--r--|--r--|--r--||---------r--|-----
    D---|--e--|--e--|--e--|--e--|--e--|--e--|--e--|--e--||*--------e--|-----
    A---|--s--|--s--|--s--|--s--|--s--|--s--|--s--|--s--||*--7--7--s--|-----
    E---|--t--|--t--|--t--|--t--|--t--|--t--|--t--|--t--||---------t--|-----…
  • Distorted opening and then...
    |---------------------------------------------|
    |---------------------------------------------|
    |---7--7--xx--7--7--xx--7--7--xx--7--7---5----|
    |---7--7--xx--7--7--xx--7--7--xx--7--7---5----|
    |---5--5--xx--5--5--xx--5--5--xx--5--5---3----|
    |---------------------------------------------|
    Repeat…
  • Standard Tuning
    
    (Intro)(0.15)
    G:----------|----------|----------|----------|
    D:----------|----------|----------|----------|
    A:--5----3--|--0----0--|--5----3--|----------|
    E:----------|----------|----------|--1----3--|
    
    G:2---------|----------|----------|----------|----------|
    D:---3------|----------|----------|----------|----------|
    A:------3--5|5--5--5--5|5--5--5--5|5--5--5--5|5--5--5--5|
    E:----------|----------|----------|----------|----------|…
  • Standard Tuning
    
    (Intro)
    G:----------|----------|----------|----------|
    D:----------|2---3-----|----------|----------|  x2
    A:---4 /5---|---------1|---1--0---|----------|
    E:----------|----------|----------|---3--1---|
    
    G:----------|----------|----------|----------|
    D:----------|----------|----------|----------|…
  • |A5  |D5  G5  E5|  x  4
    |A5 | x 4
    
    A5
    Run down, low down, don't feel tired
    Take no orders, don't get fired
      D5         F5        A5
    I waste away cruisin' along
    
     
    Fighting blizzards, ragin' storms
    Hold the wheel tight know…
  • Standard Tuning
    
    G:-------------------|      |-------------------|
    D:-------------------|  x6  |-------------------|
    A:---3--------3--5--3|      |----3--------------|
    E:5------5--3--------|      |5-------5--3---0--3|
    
    G:-------------------|…
  • Guitar Solo   
    
          G           G/F#  Em              A    
    
    E|---|---12------------|---------------|-------------------12b|
    B|---|------15-13-12---|12-13-12----12-|(10pb12)r10-8-10------|
    G|14b|16---------------|---------14----|-----------------9----|
    D|---|-----------------|---------------|----------------------|
    A|---|-----------------|---------------|----------------------|
    E|---|-----------------|---------------|----------------------|…
  • Standard Tuning
    
    G:----------|----------|----------|----------|
    D:----------|----------|----------|----------|
    A:--3----5--|--5----5--|-2---2---3|----------|_______________________
    E:----------|----------|----------|-3---3---5|…
Наверх