Аккорды «Uncle Kracker»

Uncle Kracker
Uncle Kracker (настоящее имя Matthew Shafer) - американский рок-певец. Родился 9 ноября 1974 года в Мичигане. В 1987 году встретил Кид Рока, который попросил его стать ди-джеем. В середине 1990 годов Kracker занимался ди-джействованием в Детройте, в клубе The Pretty Woman. В 1999 году вышел дебютный альбом «Double Wide». Uncle Kracker участвовал в записи альбома Кид Рока «Cocky» в 2001 году. 16 ноября 2006 года началась работа над новым альбомом «Happy Hour», релиз намечен на 2007 год. Uncle Kracker (настоящее имя Matthew Shafer) - американский рок-певец. Родился 9 ноября 1974 года в Мичигане. В 1987 году встретил Кид Рока, который попросил его стать ди-джеем. В середине 1990 годов Kracker занимался ди-джействованием в Детройте, в клубе The Pretty Woman. В 1999 году вышел дебютный альбом «Double Wide». Uncle Kracker участвовал в записи альбома Кид Рока «Cocky» в 2001 году. 16 ноября 2006 года началась работа над новым альбомом «Happy Hour», релиз намечен на 2007 год. Скрыть...
Популярные аккорды Uncle Kracker:
алфавиту | просмотрам | случайно
  • No bass during the intro, first verse or first chorus. Bass comes in
    during verse 2 (45 seconds)
    
    Main Riff:
    
    G|------------------------------------------------------------------
    D|------------------------------------------------------------------
    A|------------------------------------------------------------------
    E|--1-----1-1----5-6---8--8--10--12---------------------------------
    
    G|------------------------------------------------------------------
    D|------------------------------------------------------------------
    A|------------------------------------------------------------------
    E|--1-----1-1----5-6---8--8--10--12---------------------------------
    
    G|------------------------------------------------------------------
    D|------------------------------------------------------------------
    A|------------------------------------------------------------------
    E|--1------6--8----1-1----------------------------------------------
    
    Bridge:
    
    G|------------------------------------------------------------------
    D|------------------------------------------------------------------
    A|------------------------------------------------------------------
    E|--6---6-6--68--8--8---1--1--1--1--1--1-1--------------------------
    
    G|------------------------------------------------------------------
    D|------------------------------------------------------------------
    A|------------------------------------------------------------------
    E|--6---6-6--68--8--8---12-12-12-12-12-12-12------------------------…
  • E|------------10--------10--12--14--1412---10-------------------------------|
    B|----10h12--------12--------------------------------------------------------|
    G|---------------------------------------------------------------------------|
    D|---------------------------------------------------------------------------|
    A|---------------------------------------------------------------------------|
    E|---------------------------------------------------------------------------|
    
    
    E|------------10--------10--12--14--1412---10-------------------------------|
    B|----10h12--------12--------------------------------------------------------|
    G|---------------------------------------------------------------------------|
    D|---------------------------------------------------------------------------|
    A|---------------------------------------------------------------------------|
    E|---------------------------------------------------------------------------|
    
    
    E|------------10--------10--12--14--1412---10-------------------------------|
    B|----10h12--------12--------------------------------------------------------|
    G|---------------------------------------------------------------------------|
    D|---------------------------------------------------------------------------|
    A|---------------------------------------------------------------------------|
    E|---------------------------------------------------------------------------|
    
    
    E|------------10--------10--1412--1412--1412-1412--1412--10--12--10-----|
    B|----10h12--------12--------------------------------------------------------|
    G|---------------------------------------------------------------------------|
    D|---------------------------------------------------------------------------|
    A|---------------------------------------------------------------------------|
    E|---------------------------------------------------------------------------|…
  • Just hammer on the low E string in the second fret to lead into the A chords
    in the verses and chorus. Other than that there’s no real solos or anything. 
     
     INTRO: A F#m A F#m
     
     A…
  • Intro:(Play Twice)
    E-----4-------------0-0--------
    B-4-7---7--2h4p2p0--0-0--------
    G-------------------1-1--4-----
    D-------------------2-2--4-----
    A-------------------2-2--2-----
    E-------------------0-0--------
    
    
    Intro Fill:(Play…
  • [SPONSOR] 
    G
    I'm nothing fancy
         c                          G C
    I'm nothing special that's true
        G
    But I know what your thinkin'
              C                          G C
    Cuz I'm thinkin' that same thing too
          G…
  • Capo 5th fret
    (fingering relative to capo)
    
    Chords:
    
        F       G       Em    Fmaj9     Dm      C       G5     Am7
    E --1--   --3--   --0--   --0--   --1--   --0--   --3--   --3--
    B --1--   --3--   --0--   --1--   --3--…
  • A
    You made me laugh some
         D                A
    You made me cry some too
           
    You sent me off into a world of pain
         D               E
    And made me someone new
         D                 A
    You made all kinds of promises…
Наверх