Аккорды «Unloco»

Unloco
Группа Unloco была сформированна в 2000 году фронтменом Джоуи Дуенасом (Joey Duenas). В этом же году группа выпустила сингли с шестью треками, названную Useless от Captiva Records. Группа перешла к лейблу Madonna’s Maverick Records и 20 марта 2001 года Unloco выпустили свой дебютный альбом Healing, спродюсированный Johnny K. Позже гитарист Брайан Артур (Brian Arthur) покинул группу, присоединившись к Goldfinger, и был заменнен Майклом Серанно (Marc Serrano). Их вторая работа - Becoming… Читать полностью... Группа Unloco была сформированна в 2000 году фронтменом Джоуи Дуенасом (Joey Duenas). В этом же году группа выпустила сингли с шестью треками, названную Useless от Captiva Records. Группа перешла к лейблу Madonna’s Maverick Records и 20 марта 2001 года Unloco выпустили свой дебютный альбом Healing, спродюсированный Johnny K. Позже гитарист Брайан Артур (Brian Arthur) покинул группу, присоединившись к Goldfinger, и был заменнен Майклом Серанно (Marc Serrano). Их вторая работа - Becoming i, был выпущен 11 Марта 2003 года и был спродюссирован Андрю Мюрдоком (Andrew Murdock) – известным по таким группам как Powerman 5000, Godsmack, Chimaira и многим другим артистам. В этот же год группа гастролировалла вместе с Korn, открывая фестиваль Music as a Weapon II, и присутствовала на Ozzfest 2003 года. Лейбл отказывается далее работать с группой потому-что, Becoming i проваливается и группа разделяется в этот же год. После этого гитарист Сарк Серрана присоединяется к A Dozen Furies, барабанщик Пит Наваррет (Pete Navarret) организует свою комманду под названием Exit the Sun, а вокалист Джоуи Дуенас (Joey Duenas) создает свою - Anew Revolution, включающую членов группы Slaves on Dope. Группа выпустила сингл в 2005 году. Так-же они выпустили Rise (Альбом Anew Revolution) в 2008. Скрыть...
Популярные аккорды Unloco:
алфавиту | просмотрам | случайно
  • Standard Tunning
    
    INTRO (0:00-0:51)
    E----------------------------------------------------------------
    B----------------------------------------------------------------
    G----66--------00--44--------------------------------------------
    D----66---77---22--44--------------------------------------------
    A----44---77---22--22--------------------------------------------
    E---------55-----------------------------------------------------
    
    (0:52-1:25)
    E---------------------------------------------------------------
    B---------------------------------------------------------------
    G--99------------------------------------------------------------
    D--XX---99--66--------BACK…
  • Tuning:Drop D - DADGBE
    
    Intro 1
    e|--------------------------------------------------------------------------|
    B|--------------------------------------------------------------------------|
    G|--------------------------------------------------------------------------|
    D|--3p2-2--2-3p2-2--2--2h3-3-3-3/5--5555------------------------------------|X2
    A|--------------------------------------------------------------------------|
    D|--------------------------------------------------------------------------|
    Intro…
  • E[-----------------------------------] [-------------------]                   
    B[-0----0----0-0----0-0----0-0---0-0-] [---0-0----0-0----0-]
    G[-9/11---11-----11-----11-----9-----] [12-----12-----12---]
    D[-----------------------------------]…
  • Tuning: Drop D, 1 1/2 Steps Down (B,F#,B,E,G#,C#)
    
    Verse
    c#|----------------------|
    g#|----------------------|
    e |----------------------|
    B |----------------------|
    F#|--5-5-3-3-5-----8-----|
    B |--5-5-3-3-5-5-8-8-8---|
    
    Interlude
    c#|--------|
    g#|--------|
    e…
  • Intro (acoustic)
    d-----------------------------------------------------------------
    a-----------------------------------------------------------------
    f---------------------3--3-3---------------------2-2--2-----------
    c-5--5--555555--5--5--555555-3--3--333333--3--3--333333-----------
    g-5--5--555555--5--5--555555-3--3--333333--3--3--333333-----------
    C-5--5--555555--5--5--555555-3--3--333333--3--3--333333-----------
    repeat…
  • Tuning: B,F#,B,E,G#,C#
    
    Intro
    |-------------------------------------------------------|
    |-------------------------------------------------------|
    |-------------------------------------------------------|
    |-11-1111-9-9999-11-1111-9-9999-7-77-5-5555-7-77-5-5555-|
    |--9--9-9-9-9999--9--9-9-9-9999-5-55-5-5555-5-55-5-5555-|
    |--9--9-9-9-9999--9--9-9-9-9999-5-55-5-5555-5-55-5-5555-|
    
    Verse
    |---------------------------------------------------|
    |---------------------------------------------------|
    |---------------------------------------------------|
    |-----11---11-------9---9-------7---7-------5---5---|
    |---9----9----9---9---9---9---5---5---5---5---5---5-|
    |-9-------------9-----------5-----------5-----------|
    
    Chorus
    |----------------------------------------------------------------|
    |----------------------------------------------------------------|
    |----------------------------------------------------------------|
    |-9-999-999-999-999-999-99-10-101010-5-5-7-7777-77-11-11-11-11-11-|
    |-9-999-999-999-999-999-99-10-101010-5-5-5-5555-55-11-11-11-11-11-|
    |-9-999-999-999-999-999-99-10-101010-5-5-5-5555-55-11-11-11-11-11-|
    
    Interlude…
  • Tuning:BEADG
    5-STRING 
    
    intro 
    G----------------------------------------
    D----------------------------------------
    A----------------------------------------
    E----------------------------------------
    B------------0--------0--------0---------…
  • [INTRO + VERSE]
    C#|-------------------------------------------------|
    G#|-------------------------------------------------|
    E |-------------------------------------------------|
    B |-----0---0-----7---7--------10---10-----5---5----|
    F#|---0---0-----7---7--------8----8------3---3------|
    B…
Наверх