Аккорды «Usher»

Usher
Ашер (англ. – Usher Raymond IV) американский певец, танцор и актер. Обладатель пяти премий «Грэмми». Суммарный тираж его альбомов составляет около 30 миллионов копий. Ашер родился 14 октября 1978 года, начав приобщаться к музыке с возраста 12 лет в хоре баптистской церкви города Атланты, которым руководила его мама. Какое-то время спустя он попробовал свои силы в местных музыкальных конкурсах, в связи с чем обратил на себя внимание одного из менеджеров лэйбла La Face, который, в свою очередь,… Читать полностью... Ашер (англ. – Usher Raymond IV) американский певец, танцор и актер. Обладатель пяти премий «Грэмми». Суммарный тираж его альбомов составляет около 30 миллионов копий. Ашер родился 14 октября 1978 года, начав приобщаться к музыке с возраста 12 лет в хоре баптистской церкви города Атланты, которым руководила его мама. Какое-то время спустя он попробовал свои силы в местных музыкальных конкурсах, в связи с чем обратил на себя внимание одного из менеджеров лэйбла La Face, который, в свою очередь, устроил ему «смотрины» у известнейшего продюсера L.A. Reid’a. Вскоре после их знакомства был подписан контракт. За месяц до 15-летия Ашера, в конце 93-го года был издан его дебютный сингл “Call Me A Mack”, а в наступившем 94-м последовал выход первого одноименного сольного альбома. Исполнительным продюсером диска являлся хит-мейкер P. Diddy . Расчет был сделан на три сингла: “Can U Get Wit It”, “Think Of You” и “The Many Ways”. Альбом поднялся до 25-й позиции в R&B чартах. Закончив high school, Usher берется за запись второго альбома “My Way ”. В качестве продюсера на этот раз был задействован Jermaine Dupri. 11 недель проведенных песней “You Make Me Wanna…” на первом месте чартов, опередившей по временному показателю даже “Candle In The Wind” Элтона Джона , посвященной принцессе Диане и являвшейся до этого самой «долгоиграющей» за последние три года, дали понять, что на небосклоне популярной музыки появилась новая звезда. “My Way ” стал шесть раз «платиновым» . Помимо “You Make Me Wanna…” на диске был еще один хит “Nice & Slow” с только появившимися Jagged Edge. Видеоролик к песне снимался в Париже. В дополнение к коммерческому успеху, благодаря “My Way ” Ашер получил свою первую «Грэмми» в номинации Best Male R&B Vocal Performance за песню “You Make Me Wanna…”. Активность Ашера во всех областях шоу-бизнеса и индустрии развлечений началась, как раз после выхода “My Way ”. Участие в многочисленных телевизионных шоу, концертах и турах самых известных артистов и даже съемка в кино (роль в фильме “The Faculty”, за которой последовала целая вереница ролей в различных кинофильмах). Ко всему прочему, Ашер использовал свою энергию на общественном поприще, приняв на себя обязательства представителя Министерства транспорта США в их программе «Get Big On Safety», стал примером для подрастающего поколения, участвуя во всевозможных студенческих конференциях, объясняя важность получения образования. Удовлетворяя потребность миллионной аудитории фанатов в любимой музыке, Ашер выпускает диск «Live», содержащий концертные версии ключевых вещей с предыдущих альбомов. 7 августа 2001 года увидел свет третий альбом певца со странным названием “8701”. Хит-сингл “U Remind Me” оставался в чартах как R&B, так и поп-музыки в течении 4 недель, после чего этот результат был превзойден песней “U Got It Bad”, «застрявшей» в хит-парадах на 7 и 6 недель соответственно. Итоговым показателем продаж альбома “8701” стала цифра в 8 миллионов экземпляров. За перечисленные выше песни были получены «Грэмми». Вместо того, чтобы почивать на лаврах Ашер превосходит самого себя в 2004 году своим альбомом “Confessions”. Диску сопутствуют совершенно невообразимые статистические показатели по продаваемости, времени нахождения в чартах, полученным наградам и т. д. Более 1.1 миллионов копий разошлись за первую неделю. Спустя семь месяцев с момента релиза альбома, было выпущено его специальное издание, дополненное четырьмя бонус треками, в числе которых был еще один хит – “My Boo” с Алишей Киз. В 2008 году выходит очередной альбом Ашера «Here I Stand». Два сингла с него - «Love In This Club» и «Moving Mountains» – попадают в Billboard Hot 100. «Love In This Club» возглавляет чарт на протяжении четырёх недель, а сам альбом на одну неделю поднимается на самую вершину Billboard 2008. 30 марта 2010 года вышел шестой студийный альбом Ашера - Raymond v Raymond, который принес очередной сингл #1 - «OMG». 12 июня 2012 года вышел седьмой студийный альбом - Looking 4 Myself Альбомы * 1994: Usher * 1997: My Way * 1999: Live * 2001: 8701 * 2004: Confessions * 2008: Here I Stand * 2010: Raymond v Raymond * 2012: Looking 4 Myself Синглы, попавшие в Top 10 чарта Billboard Hot 100 * 1997: You Make Me Wanna (#2) * 1998: Nice & Slow (#1) * 1998: My Way (#2) * 2001: U Remind Me (#1) * 2001: U Got It Bad (#1) * 2002: U Don’t Have to Call (#3) * 2004: Yeah! (#1) * 2004: Burn(#1) * 2004: Confessions Part II (#1) * 2004: My Boo (feat. Alicia Keys) (#1) * 2005: Caught Up (#8) * 2008: Love In This Club (#1) * 2010: OMG (#1) Фильмография * 1998: The Faculty * 1999: She’s All That * 1999: Light it Up * 2001: Texas Rangers * 2005: In the Mix * 2010: Killers Скрыть...

Теги:

Популярные аккорды Usher:
алфавиту | просмотрам | случайно
  • No Capo needed.
              Em
    Watch me as I dance under the spotlight-
     D                      C
    listen to the people screaming out more,
         C                    Em
    Cos I create the feeling that keep Em coming back,…
  • Intro: Dm7  Am7  Gm7  Am7 }x2
    
    Verse:
     Dm7
    Do you remember girl
    Am7           Gm7           Am7
    I was the one who gave you your first кiss
    Dm7
    Cause I remember girl
    Am7              Gm7           Am7
    I was the…
  • Capo 2
    Chords relative to capo and i prefer to play them open sooooo looking like this:
    
    C#m - x46650
    Asus2 - x02200
    E - 022100
    Bsus2 - x24400
    
    I use these chords and fingerpick the song on an acoustic guitar but…
  • Intro: Fmaj7 (2) Dm7 E7
           Amaj7 Bm7 C#m7 Dmaj7 E11 
           Amaj7 Bm7 C#m7 Dmaj7 Dm7 C#m7 F#m7 (2)
           Bm7 (2) E11 (2)
    
    F#m7 (2)                Bm7 (2)
    Clearly, this is new for me 
         Dmaj7…
  • Little melody that plays in the background
    e--------------------------------------------|
    b--------------------------------------------|
    g--------------------------------------------|
    d--------------------5h7-7-7-7s5s3-3-3-3-2---|
    a--3-3-3-3s5h7-7-7-7-----------------------3-|
    e--------------------------------------------|
    Repeat…
  • Intro: A F F G
           A F G G
           A F F G
           F F G G
    
    Chorus:
    A         F
    there goes my baby
     F      G
    (oo girl look at you)
    A          F     G        G
    you don't know how good it feels to call you my girl
    A…
  • B
     I  was all alone,
         Abm7
    I was  feelin  rather low,
       C#m7                 F#7
    I  needed  someone to lift my  spirits  up
         B                 Abm7
    So I  dropped  in on a dance  just  to take a glance…
  • This is the main melody line
    
    E-------------------------------------
    B--14--14---14---11-9--7--4--11--9--14
    G-------------------------------------
    D-------------------------------------
    A-------------------------------------
    E-------------------------------------
    
    E----------------------------------
    B--14--14--14-11-9-7--4-11--9--6--4
    G----------------------------------
    D----------------------------------
    A----------------------------------
    E----------------------------------
    
    E-------------------------------------
    B-14--14--14--11-9--7--4---11--9--6--4
    G-------------------------------------
    D-------------------------------------
    A-------------------------------------
    E-------------------------------------
    
    E----------------------------
    B--9--11--12--11--7--7--9--11
    G----------------------------
    D----------------------------
    A----------------------------
    E----------------------------…
  • Tuning: Standard
    
    
    [Intro]
    e|-------------------------------------------------------------------------|
    B|-------------------9----9h13--14--13-9-----------------------------------|
    G|------------10-----------------------------------------------------------|
    D|------11-----------------------------------------------------------------|
    A|-------------------------------------------------------------------------|
    E|-------------------------------------------------------------------------|
    
    
    [Verse]
    e|----------------------------------------------------|--------------------|
    B|----------------------9~~~~----/13/14/13--9--10--8--10-----------------|-|
    G|-------------10---------------------------------|------------------------|
    D|------11--------------------------------------------|--------------------|
    A|----------------------------------------------------|--------------------|
    E|----------------------------------------------------|--------------------|
    
    
    Then…
  • Capo 3th position
    
    Main riff:
    E |----------------------------------------------------------|
    B |----------0---0---------0---0---------0---0---------0---0-|
    G |-0--0--0--0---0---------0---0---------0---0---------0---0-|
    D…
  • 3:05
    e|---------------------------------------------------------------------------|
    B|------14-16-14-16b18---16b18---16b18--18r16p14---14---14h16---------------|
    G|--/15----------------------------------------------------------------------|
    D|---------------------------------------------------------------------------|
    A|---------------------------------------------------------------------------|
    E|---------------------------------------------------------------------------|…
  • Capo 3
    
    E-----------------|------------------|----------------|-----------------|
    B-------1-------1-|--------3--------3|-------1-------1|-------0-------0-|
    G-----2-------2---|------0--------0--|-----2-------2--|-----0-------0---|
    D---2-------2-----|----0--------0----|---3-------3----|---0-------0-----|
    A-0-------0-------|------------------|----------------|-----------------|
    E-----------------|-0--------0-------|-1-------1------|-3-------3-------|
    
    E-----------------|------------------|----------------|-----------------|
    B-------1-------1-|--------3--------3|-------1-------1|-------3-------3-|
    G-----2-------2---|------0--------0--|-----2-------2--|-----0-------0---|
    D---2-------2-----|----0--------0----|---3-------3----|---0-------0-----|
    A-0-------0-------|------------------|----------------|-----------------|
    E-----------------|-0--------0-------|-1-------1------|-3-------3-------|…
  • Ab       Eb
    Going nowhere fast
        Cm     Bb     Ab
    We've reached the climax  
                  Eb       Cm
    We're together, now we're undone
                 Bb
    Won't commit so we choose to
    
    Repeat Chords throughout song
    
    Another…
  • e------------------------------------------------------------------------------|
    B--------------------------10--10/12--x-x-x------------------x-x-x-------------|
    G-2/4--4/6--6/7--7/9--9/11------------x-x-x-9/11-9-7--7/9-7--x-x-x-7-9b11r9-7--|
    D-------------------------------------x-x-x------------------x-x-x-----------9-|
    A------------------------------------------------------------------------------|
    E------------------------------------------------------------------------------|
    
    e------------------------------------------9h10p9------9h10p9-----9h10p9h10p9h10p9-------|
    B-x-x-x------------------------------------------10----------10-------------------10-----|
    G-x-x-x-9/11-9-7--7/9-7--6h7p6------9p7------------11p9--------11-------------------11---|
    D-x-x-x-----------------------7/9-7----9-------------------------12-------------------12-|
    A----------------------------------------------------------------------------------------|
    E----------------------------------------------------------------------------------------|
    
    e-9h10p9h10p9h10p9------9h10p9h10p9h10p9h10/12--10-12-12/14--17p14-------------------|
    B-----------------10----------------------------------------------17--17/1917-15----|
    G-------------------11------------------------------------------------------------16-|
    D---------------------12-------------------------------------------------------------|
    A------------------------------------------------------------------------------------|
    E------------------------------------------------------------------------------------|
    
    e----------------|
    B------15p14-----|
    G-14/16-----14---|
    D-------------16-|
    A----------------|
    E----------------|…
  • Tuning:Standard
    
    The main part has an echo effect, if you can't produce one, 
    try picking lighter and lighter each time.
    
    Verse:
    Main:
    e|---------------------------------------------------------------------------|
    B|14(14-14-14-14)15(15-15-15-15)--17(17-17-17-17)----------------------------|
    G|---------------------------------------------------------------------------|
    D|---------------------------------------------------------------------------|
    A|---------------------------------------------------------------------------|
    E|---------------------------------------------------------------------------|
    
    This…
  • Сноrds: Standard tuning (EBGDAe)
    
      Em7           Bm7     Am7         Bm7
    e|-----------------------------------------------------|
    B|-----8h10p8--8----------7---7---5~---5555-------7----|
    G|----7--------7----------7---7---5~---5555-------7----|
    D|---9---------9----------7---7---5~---5555-------7----|
    A|--7--------------------------------------------------|
    E|--------------------0-7----7----5~---5555-------7----|…
  • Chorus:
             Em          D
     Baby let me love you downnn
          B9         C
     There's so many ways to love ya
            Em           D
     Baby I can break you downnn
          B9         C
     There's so many ways to love…
  • "Peace up, A town down...." i guess A town is atlanta, right?
    
    Tuning: let's stay standard
    
    e|-----10----11--------11------11-------------------------------------------|
    B|---8-----8--------8-------8---------(yeah!)-------------------------------|
    G|--------------------------------------------------------------------------|
    D|-------------------------repeat…
  • Intro: Gm Eb F D
    
    Usher, baby
    Yeah, we did it again
    And this time I'mma make you scream
    
    USHER! Yeah, man...
    
    Gm
    I see you over there, so hypnotic
    Eb
    Thinking 'bout what I Do to that body
    F
    I get you like ooh…
  • F----------------------------------------------------------------|
    A#----------------------------------------------------------------|
    D#----------------------------------------------------------------|
    G#----------------------------------------------------------------|
    C---9h11P9---7h8-8-7h8-------------------------------------------|
    F----------------------------------------------------------------|…
  • Standard Tuning (Spacing is fairly accurate to timing)
    
    | | --------------------------------------------------------------- | |
    | | --------------------------------------------------------------- | |
    | | ---8----------8----------5-5----4-4----------------------------…
  • Em              C        D
    Something ugly this way comes
                    Bm       Em
    Through my fingers sliding inside
                 C                 D
    All these blessings all these burns
                Bm…
  • e|-----------------------------------------------------------3-----|
    B|--------------------------5------------------5-------------3-----|
    G|--0h2-0-0h2-----0h2--5-7--5---7-----5--5---5-5-----3-3--3--------|
    D|--0h2-0-0h2-----0h2-----------6-----5--5---5-------3-3--3--------|
    A|--------------------------------------------------------3--------|
    E|-------------1------------6---6-----5------5-----3---------------|
    
    e|-------------------------------------------------------------------|
    B|-------------------------5---------------6-6h8p6-------3------3----|
    G|--0h2-0-0h2-----0h2--5-7-5---7------5-5--5-------5-----3------3----|
    D|--0h2-0-0h2-----0h2----------6------5-5--7-------------3------3----|
    A|-----------------------------------------5--------------------3----|
    E|-------------1-----------6---6------5------------------3-----------|
    
    Fmaj7…
  • Capo: 1st Fret
    
    Intro: A E F#m D 4x
    
    I know I vowed to never Do this again but I at
    Got something that you need to know
    I guess this seems to be the only thing im good
    You're the realest shit i never wrote
    Can't…
  • CAPO 7
    
    G Cadd9 Em7 D
    I can't win, I can't reign
    I will never win this game, without you, without you
    I am lost, I am vain
    I will never be the same, without you, without you
    I won't run, I won't fly
    I will never…
  • Intro: A# D# some times
    
    Bb
    I'm the kind of brotha
    Eb                           Bb
    Who been doin' it my way gettin my way for years, in my career
    Bb
    And every lover
    Eb                              Bb
    in and out…
  • Standard Tuning
    No capo
    
    C#m      C#         B
    Do I remind you of the pain
       Asus2             
    That he put you through, girl
    C#m         C#        B
       Is that the reason I'm to blame
    Asus2
    Before I Do it?
    C#m…
  • CAPO on 3rd Fret
    
    Verse I:
    G
    he built a bridge out of her own insecurities
    G
    No one was brave enough to cross except for me
    Bm     Bm
    Here I am
    G
    She built a castle from the pieces she took from me
    G
    I'm going…
  • This is the main guitar riff you hear in the song.
    (I'm not sure how many times you repeat the chords on the D string).
    
    E----------------------------------------------------------
    B----------------------------------------------------------
    G--55--5--5--3h5--3--1-------------------------------------
    D-----------------------3--3333--1h3--1--6--3--------------
    A----------------------------------------------------------
    E----------------------------------------------------------…
  • CHORDS USED:
    e|--x--7--5--5--------------------|
    B|--8--7--6--5--------------------|
    G|--9--7--5--5--------------------|
    D|--9--7--7--5--------------------|
    A|--7--7--5--5--------------------|
    E|--x--x--x--x--------------------|
    
    Intro:
    e|--x--7-x-x-x-x-x-|
    B|--8p-7…
  • INTRO:
    e------------------------|
    b------------(9)----(7)--|
    g------------------------| Repeat x 4
    d-------------11---------|
    a-------------11-----9---|
    e--5--7---8--------------|
    
    VERSE:
    e--x----x--|
    b--9----7--|
    g--x----8--|…
  • The Following Progression Repeats Throughout The Whole Song:
     Am  | Em - Em7 |  Gm  |  F
    
    Lyrics:
    I can't let nothing come in between the two of us
    Cause its' like your all I need since we been together and
    Whenever…
  • Intro:
    |-12----12----12----12----12----12----12----12----12----12-----12----12-----|I
    |----13----13----13----13----12----12----12----12----13----13-----13----13--|
    |---------------------------------------------------------------------------|
    |---------------------------------------------------------------------------|
    |---------------------------------------------------------------------------|
    |---------------------------------------------------------------------------|
    
    |-15--12--15--12--15--12--15--12----------------------------------------|I
    |-----------------------------------------------------------------------|
    |-----------------------------------------------------------------------|
    |-----------------------------------------------------------------------|
    |-----------------------------------------------------------------------|
    |-----------------------------------------------------------------------|
    
    Verse:…
  • Tuning: Standard
    
    e -----------------------------------------------|
    B -----------------------------------------------|
    G ---------------------0-2-2-2-0-----------------|
    D --------------2-2-2------------3-3-3-2---------|
    A…
  • E
    I just wanna get your attention
    F#
    I really wanna be your love in your head
    Ebm
    Coz when I got you don't wanna get some yeah
    Abm
    But girl that's only if you ain't scared
     
    Refrain:
    E
    And I won't knock or ring…
  • e-----------------------------------------------------------------|
    B-----------------------------------------------------------------|
    G--15h17-17-15h17-17-17-17-17-17-17-15h17-17----------------------|
    D-----------------------------------------------------------------|
    A-----------------------------------------------------------------|
    E-----------------------------------------------------------------|
    
    Just…
  • Intro/Chorus
         C           Am7         Abmaj7        Dm7
    E-------0h1--h3---|-----------------|-3--------3------|-1------1---------|
    B-----------------|---------1h3p1---|-1-----1-----1---|-1----1----1----1-|
    G-----0-----------|-------0---------|-1---1-----------|-2--2---------2---|
    D---2-------------|-----2-----------|-1---------------|-0----------------|
    A-3---------------|-2-0-------------|-----------------|------------------|
    E-----------------|-----------------|-----------------|------------------|
    
    (Verse…
Наверх