Аккорды «Van Halen»

Van Halen
Эта одна из наиболее известных американских хард-рок-групп зародилась в 1973 году в Пасадене, Калифорния. Эдди Ван Хален (р. 26 января 1957, Ниймеген, Нидерланды; гитара, клавишные), Алекс Ван Хален (р. 8 мая 1955, Ниймеген, Нидерланды; ударные) и Майкл Энтони (р. 20 июня 1955, Чикаго, США; бас), игравшие в "Broken Combs", уговорили вокалиста Дэвида Ли Рота (р. 10 октября 1954, Блумингтон, Индиана, США) уйти из "Real Ball Jets" и присоединиться к ним. Получив согласие последнего,… Читать полностью... Эта одна из наиболее известных американских хард-рок-групп зародилась в 1973 году в Пасадене, Калифорния. Эдди Ван Хален (р. 26 января 1957, Ниймеген, Нидерланды; гитара, клавишные), Алекс Ван Хален (р. 8 мая 1955, Ниймеген, Нидерланды; ударные) и Майкл Энтони (р. 20 июня 1955, Чикаго, США; бас), игравшие в "Broken Combs", уговорили вокалиста Дэвида Ли Рота (р. 10 октября 1954, Блумингтон, Индиана, США) уйти из "Real Ball Jets" и присоединиться к ним. Получив согласие последнего, они поменяли название своей группы на "Mammoth". Исполняя кавер-версии известных хард-роковых композиций конца 60-х - начала 70-х, парни концертировали по барам и клубам Лос-Анджелеса фактически без перерыва в течение середины 70-х. На одном из этих выступлений их и приметил басист "Kiss" Джин Симмонс. Он был поражен энергией, которой они заводили публику, и ярким талантом их вокалиста. Симмонс занялся продюсированием демозаписей "Mammoth", но, как ни странно, большинство известных записывающих компаний отказывались заключать с группой контракт. Тогда же обнаружилось, что их название уже зарегистрировано, так что ребятам пришлось его сменить. Рот предложил назваться просто "Van Halen". По рекомендации Симмонса, продюсер Тед Темплман занялся делами группы. Команда ему понравилась, и он, в конце концов, убедил "Warner brothers" подписать с ними контракт. Под руководством Темплмена "Van Halen" засели в студии, и в результате в 1978 году появился их дебютный одноименный альбом. Релиз был хорошо встречен критиками и сравнивался с дебютом "Montrose" в 1974-м. На нем проявился уникальный сплав энергии и виртуозности гитары Эдди Ван Халена и самоуверенного вокала Рота. В течение 12 месяцев было продано два миллиона копий этого альбома, поднявшегося до 19 места в чартах "Billboard". Диск успешно продавался и впоследствии разошелся в США к 1996 году тиражом более 9 миллионов экземпляров. Журнал "Guitar Player" назвал Эдди Ван Халена "лучшим новым гитаристом 1978 года". "Van Halen II", сделанный в том же ключе, как и его предшественник, имел не меньший успех. Проделки Рота на сцене стали даже более сенсационными - это был Шоумен с большой буквы, умело комбинировавший театральные трюки с ошеломляющим голосом, достигая большого эффекта. На альбоме "Women and children first" группа немного отклонилась от своего прежнего стиля, начав эксперименты с использованием синтезаторов. Эта тенденция продолжила свое развитие на "Fair Warning" , где стиль музыкантов был уже совершенно не похож на их раннее творчество. "Diver down" оказался самым слабым альбомом "Van Halen", т.к. самыми более-менее приличными треками здесь были кавер-версии композиций 60-х. Но многочисленные поклонники коллектива продолжали раскупать их пластинки, и этот диск, как и все предыдущие, получил "платину". Эдди Ван Хален участвовал в качестве гостя при записи очередного хита Майкла Джексона "Beat it" в феврале 1983-го. Альбом "1984" вернул "Van Halen" утраченные было позиции. Возглавленный композицией "Jump" (№ 1 в штатовских и № 7 в британских чартах), альбом продержался на второй строчке американских хит-парадов в течение пяти недель. Испортил всю малину Рот, покинувший состав группы в 1985-м, чтобы заняться сольной карьерой. Пришлось принять в команду на освободившееся место экс-вокалиста "Montrose" Самми Хагара (р. 13 октября 1947, Монтерей, США). Группа не уступила давлению компании грамзаписи, чтобы сменить название, и в обновленном составе выпустила "5150" в июне 1986-го. Сопутствующий ему сингл "Why Can't This Be Love" достиг 3 позиции в чартах "Billboard" и 8-й в Англии, в то время как сам альбом первый в их дискографии занял 1-ю позицию в хит-парадах США и остается их наиболее раскупаемым диском до настоящего времени. "OU812" оказался более посредственным, хотя тоже некоторое время занимал верхние строчки штатовских чартов. С "For Unlawful Carnal Knowledge" (сокращенно "F.U.C.K.") были кое-какие проблемы во время его выпуска. Однако музыкальный материал на альбоме с таким прикольным названием являлся безупречным собранием композиций бескомпромиссных рокеров. Группа снова подтвердила свой успех и въехала в 90-е на новой творческой волне - само собой разумеется, диск получил платиновый статус. Их "живой" альбом послужил прототипом следующего релиза - "Balance". Популярность "Ван Халена", по-видимому, оставалась неподвержена к разрушительным действиям времени или моды. Компиляция лучших вещей группы, выпущенная в 1996 году заняла верхнюю строчку в хит-параде "Billboard", хотя это очень необычно для сборников. После того, как долго и упорно ходили слухи, что Хагар разругался с другими членами группы, последний покинул состав в 1996 году. Фаны немедленно возрадовались, когда было объявлено, что в команду вернется Дэвид Ли Рот. Но несколькими месяцами позже тот сделал заявление, исключающее его дальнейшую причастность к "Van Halen". Вакансию занял Гэри Черон (р. 26 июля 1961, Малден, США) вскоре после объявления о роспуске "Extreme" в октябре 1996-го. После нескольких лет творческого простоя, борьбы Эдди Ван Халена с раком, группа все же воссоединилась в 2004 году с Сэмми Хагаром в качестве вокалиста. Был выпущен двойной сборник лучших песен группы, "The Best of Both Worlds", который включал в себя и три новые песни. Затем последовало масштабное полугодовое турне по США, и несмотря на то, что группа после этого тура вошла в списки самых успешных гастролеров США, многие были недовольны игрой Эдди, который иногда выступал в состоянии сильного алкогольного опьянения, и это крайне негативно сказывалось на качестве игры. После окончания турне из группы ушел Сэмми Хагар и был уволен Майкл Энтони. Скрыть...
Популярные аккорды Van Halen:
алфавиту | просмотрам | случайно
  • Elec. guitar w/dist. tuned one half step down 
    (low to high: Eb Ab Db Gb Bb Eb)
    
    P.H.                                    -     -   -   
    |----------------------------------------------------------------|
    |----------------------------------------------------------------|
    |---/13--(2)------------------------5--7b1/2(7)r(7)p5h7bf(7)----|
    |----13--(2)--2bfr(2)bf(2)r(2)--5-7-----------------------------|
    |---------(0)----------------------------------------------------|
    |----------------------------------------------------------------|
    P.M.…
  • Ain't Talkin bout love(intro)
    
    P.M. Notes, weird effect on the last 3 notes (G,C,B)
    
    
    (Intro)
    
    
    E-------------------------------------------------------------|
    B--------------5-6-----------8--------------------------------|
    G--------5----------5----------7------------------------------|
    D-----------7----------7--------------------------------------|
    A---0-7-------------------------------------------3--2--------|
    E-----------------------------------------------3-------------|…
  • Intro
    |-----------------|-----------------|-----------------|-----------------|
    |-----------------|-----------------|-----------------|-3--5---------5--|
    |-3---------------|-(3)-------------|-(3)-------------|-----------------|
    |-----------------|-----------------|-----------------|-----------------|
    
    
    |-----------------|-----------------|-----------------|-----------------|
    |---5-------------|-----------------|-----------------|-----------------|
    |-3---3-----------|-(3)-------------|-(3)-------------|-----------------|
    |-----------------|-----------------|-----------------|---1--3----3-0-3-|
    
    Verse/Chorus
    |-----------------|-----------------|-----------------|-----------------|
    |o----------------|-----------------|-----------------|----------------o|
    |o3-3-3-3-3-3-3-3-|-3-3-3-3-3-3-3-3-|-3-3-3-3-3-3-3-3-|-3--------------o|
    |-----------------|-----------------|-----------------|---1---3---3-0-3-|
    
    Bridge
    |-----------------|-----------------|-----------------|-----------------|
    |-----------------|-----------------|-----3-------2-0-|-----------0-2-0-|
    |-----------------|-----------------|-----------------|-----------------|
    |-5-----3------5--|-----3---5---3---|-1-------0-------|-----------------|
    
    
    |-----------------|-----------------|-----------------|-----------------|
    |-----3-------2-0-|-----------0-2-0-|-----3-------2-5-|---------3-0-----|
    |-----------------|-----------------|-----------------|-------------2---|
    |-1-------0-------|-----------------|-1-------0-------|---------------3-|
    
    
    |-----------------||
    |-----------2-----||
    |-----5-------5-2-||
    |-----------------||
    
    Guitar…
  • Intro/Chorus
    |---------------|-------------|-------------|-------------|
    |o--------------|-------------|-------------|------------o|
    |o--------------|-------------|-------------|------------o|
    |-0--0--0--0----|-0--0--0--0--|-0--0--0--0--|-0--0--0--0--|
    
    |---------------|-------------|-------------|-------------|
    |o--------------|-------------|-------------|------------o|
    |o--------------|-------------|-------------|------------o|
    |-5-3-5--5--5---|-5--5--5--5--|-5-3-5-5--5--|-5--5--0-----|
    
    |---------------|-------------|-------------|-------------|
    |---------------|-------------|-------------|-------------|
    |---------------|-------------|-------------|-------------|
    |-5--5--5--5----|-3--3--3--3--|-5--5--5--5--|-3--3--0-----|…
  • INTRO (Acoustic Guitar)
    e-----------|----------------|----------------|----------------------|
    B-----------|----------------|---------1-1-3--|--3----5--------------|
    G-------5/7-|--7-------5--5~~|-------2--------|---------5---4---4~~--|
    D-----5-----|----------------|-----3----------|----------------------|
    A---3-------|----------------|----------------|----------------------|
    E-----------|----------------|----------------|----------------------|
    
    e-------------------|----------------------|-------------------|
    B-----------3--5h6--|--6------6/8-----5~~--|-------3----5p31--|
    G---------5---------|----------------------|-------------------|
    D-------5-----------|----------------------|-------------------|
    A-------------------|----------------------|-------------------|
    E-------------------|----------------------|-------------------|
    
    
    e----------------------------|----------------|-------------------|
    B---/6------5---(5)p3---3~~--|----------------|--3~~--------------|
    G----------------------------|--------5--5/7--|----------5--5~~---|
    D----------------------------|------5---------|-------------------|
    A----------------------------|----3-----------|-------------------|
    E----------------------------|----------------|-------------------|
    
    e---------------|---------------------------|---------------------|
    B------1--1--3--|--3----5-------------------|---------3--5h6------|
    G----2----------|---------5---4---4b(1/2)---|-------5-------------|
    D--3------------|---------------------------|-----5---------------|
    A---------------|---------------------------|---------------------|
    E---------------|---------------------------|---------------------|
    
    e----------------------|-----------------|------------------------|
    B---6------6/8------5h8|p5----3---5p31--|--5/6--6--5--5--3-3-----|
    G----------------------|-----------------|------------------------|
    D----------------------|-----------------|------------------------|
    A----------------------|-----------------|------------------------|
    E----------------------|-----------------|------------------------|…
  • INTRO 
    It's basically just the 7th position open E followed by 4th and 6th position versions of
    the standard E chord shape. The cool part is just based off of an arpeggiated open C
    with a couple little twists thrown in.…
  • M M M M        M       M     M M M M
    -----------------------------------------------------------------|    
    -7-8-----------3-4-3---5-6-5---7-8---------10-11^10--10----   ---|
    -7-7-----------3-3-3---5-5-5---7-7---------10----------12--------|…
  • Tuning:EbAbDbGbBbeb
    
    e|------------------5--5-5-------5-5-5-5-------5-5-5-5-------5---------------|
    B|-------------5----5--5-5-------5-5-5-5-------5-5-5-5-------5---------------|
    G|-------------7b9---------7b9------------7b9-----------7b9-----7b9p5--7b9~--|
    D|-x------------------------------------------------------------------------|
    A|-x------------------------------------------------------------------------|
    E|---------------------------------------------------------------------------|…
  • INTRO
    
    When The Guitar Starts It Goes Like This
    e|------------------------------------------------|
    B|------------------------------------------------|
    G|------------------------------------------------|
    D|------------------------------------------------|
    A|-x/-----x/---10/x--12/0/3/7-12/7/3/0/3/7--------|…
  • Intro
    
        Gtr I
        PM--------------------------------------------------|
    ||------------------|------------------||-----------------|
    ||o-----------------|-----------------o||-----------------|
    ||------------------|------------------||-----------------|
    ||------------------|------------------||-----------------|
    ||o-----------------|-----------------o||-----------------|
    ||--4-4-4-4-4-4-4-4-|-4-0-0-0-0-0-2-2--||-4-0-0-0-0-0-2-2-|…
  • Gtr I (E A D G B E) - 'E.V.H. Nylon Acoustic'
    
    Q=79(8=s8)
     4/4
      Gtr I
          |-3-|                   |-3-|
      E E E E E   E E a E E +E  E E E E
    |-----------|-----------------------|
    |---------2-|-3---3s5-2-(2)-------2-|
    |-------2---|-2---2s4-2-(2)-----2---|
    |-----2-----|-4---4s6-2-(2)---2-----|
    |---0-------|---0-----------0-------|
    |-----------|-----------------------|…
  • Solo: w/phase shifter
                          TH    TH    TH    TH     TH      TH
    e----------------------------------------------------------|
    b--4--5--4--5-------9(21)-9(21)-9(21)-9(21)--7(19)---7(19)-|
    g--2--2--2--2-------9(21)-9(21)-9(21)-9(21)--8(20)---8(20)-|
    d--2--2-------------9(21)-9(21)-9(21)-9(21)--9(21)---9(21)-|
    a----------------------------------------------------------|
    e---------------0------------------------------------------|…
  • e ---------------------------------------------------------------|
    B -------------------------------------------0-------------------|
    G --5----------5------------------5----------0-------------------|
    D --5--7--7--5---7--7-----5--7--5---7--7-----0-------------------|
    A…
  • Standard tuning, throw in a MXR - phase 90.
    
                 p    p   p  p
    -------------------------------------------------------------------|
    -------------------------------------------------------------------|
    -------------------------------------------------------------4--3--|
    ---0h2--2/4--2--4--5--4--3--2/42--2--------------2--4--4/6--------|
    --------------------------------------------2--4-------------------|
    0-------------------------------------0--0-------------------------|
    
    --------------------------------|
    --------------------------------|
    3--2--2--1h2p1------------------|
    ----------------2--1--1---------|
    -------------------------0h1--1/|
    --------------------------------|…
  • Guitar I (Eb Ab Db Gb Bb Eb) - 'E.V.H. brown sound w/chorus'
    Intro
     4/4
      Guitar I
      Q  E E +Q   Q    Q.   E +E  Q.     Q  E E +E  Q.     Q.   E +E  E   Q
    |----------------|-----------------|-----------------|--------------------|
    |------0-(0)-----|------0-(0)------|------0-(0)------|------0-(0)---------|
    |-------------2--|------------2----|------------2----|------------2-------|
    |----2-----------|-----------------|----2------------|--------------------|
    |-0--------------|-----------------|-0---------------|--------------/10--|
    |----------------|-2---------------|-----------------|-2------------/10--|…
  • This is a great tune that is easy to play yet rocks HARD i thought i would
    tab out.Most of its here,exept for part of the solo and the 'uh uhhhh..'
    part..
    First the intro..
    
    ------------------------------------------------------|
    -----5h4-------5h4--2----------------5h4-----------2--|
    1h2--5h4--1h2--5h4--2-----------1h2--5h4-----------2--|
    1h2--5h4--1h2--5h4--2--x--x--x--1h2--5h4--x--x--x--2--|
    ------------------------------------------------------|
    ------------------------------------------------------|
    
    This…
  • intro to:Hear abot it later
    clean tone with flanger
    
    ---------------------------------------------------------------------------------|
    ---------------------------------------------------------------------------------|
    ---------2----------4-----------------------------0-----------------2------------|
    -----2----------2----------------5------------4------4------------2--------------|
    --0---------0-----------0sl--5-------0----5--------------5----0------------------|
    ---------------------------------------------------------------------------------|
    
    -----------------------------------------------------------------------------|
    -----------------------------------------------------------------------------|
    -----------4------------------0---------0--------------2-----------4---------|
    ------2------------------4---------4--------4-------2----------2-------------|
    --0-------------0---5---------------------------0----------0-----------------|
    -----------------------------------------------------------------------------|
    
    ------------------------------------------------------------------------------|
    ------------------------------------------------------------------------------|
    --------------------------------0---------------------------------------------|
    ------------5--------------4--------4-----------------------------------------|
    --0sl---5---------0---5-----------------5-------------------------------------|
    ------------------------------------------------------------------------------|…
  • Intro  Use acoustic sound.     
    Tune 1/2 step down. Play 4 times.    
    e------------------------------------------------
    B------------------------------------------------
    G-7---8--10----5---2---7---8--10--10---8---3-----…
  • Intro:
    
    E    Esu4   B	    E	   E  B   D	Dsu4  A
    --------------------------------|-------------------------|-
    -9----10-----7------9------10-7-|-7-----8-----7-----------|-
    -9-----9-----8------9-------9-8-|-7-----7-----8-----------|-
    -9-----9-----9------9-------9-9-|-7-----7-----9-----7--|-
    -7-----7------------7-------7---|-5-----5-----------O--|-
    ---O-O---O-O---O-O----O-O-------|---O-O---O-O-------------|-
    PM…
  • Intro. Part 1 (Strum)
    ~~~~~~~~~~~~~~~~~~~~~
    
              D   A/D  Am/D  G     (2x)
         e|---2----0----0--------|
         B|---3----2----1----3---|
         G|---2----2----2----0---|
         D|---0----0----0----0---|
         A|----------------------|…
  • 'Dedicate one to the ladies'   Now,
    
    |----------------------|----------------------|   ||
    |------O---O---O---O---|------O---O---O---O---| . ||
    |----------------------|----------------------|   ||
    |----------------------|----------------------|…
  • Intro &Verses                                         3x
    ---|------------------|-----------O----------------------|-----------------|-
    ---|--2-----2-------2-|-3-------5---------3--------------|-2-----2-------2-|-
    -2-|.---2-------2-----|-2-----------4-------2----2------.|---2-------2-----|-
    -2-|.-----2-------2---|-4---4/6-------64-----4--2--1/2-.|-----2-------2---|-
    -O-|------------------|-O------------------------O-------|-----------------|-
    ---|------------------|----------------------------------|-----------------|-…
  • ---------------------------2--------------------------------------------------|
    -------2-----------------2----------------------------------------------------|
    -----4---4-------------4------------------------------------------------------|
    ---4-----------------4--------------------------------------------------------|
    -2-----------0---0-2-----------0---0------------------------------------------|
    -----------3---3-------------3---3--------------------------------------------|…
  • ------------------------------------------------------------------------------
    ------------------------------------------------------------------------------
    ------------------------------------------------------------------------------
    ----------------------9-10-------------------------10-9-----------------------
    -----9---9-10-9-7---9-----------9---9-10-9-7-----9----------------------------
    -0-7---7----------0-7-------0-7---7----------0-7------------------------------…
  • This is the intro of the great song,  when I get some free time I'll might
    tab the rest. But this should give you a good start
    
    
    |--0--------0--------0---|-------0-----0--------0|-------0-----0-----0--0---|
    |--5--5--5--4--4--5--2---|-2--2--5--5--4--4--00|-0--0--5--5--4--4--5--5---|
    |------------------------|-----------------------|-------
    
    
    --…
  • -----------------------|----------------|----------
        -----------------------|----------------|----------
        -----------------------|----------------|----------
        12-12--12-12--12--12-12|0-0--0-0--0--0-0|
    Above: main…
  • e:---------------------------------------------------------------------------|
    B:---------------------------------------------------------------------------|
    G:--------------------------5------------------------------------------------|
    D:------7-------5-------7---5---------7-------5-------7--------------7-------|
    A:0-0-0---0-0-0---0-0-0---0-----0-0-0---0-0-0---0-0-0---0-3~---0-0-0---0-0-0-|
    E:---------------------------------------------------------------------------|
    
    e:---------------------------------------------------------------------------|
    B:--------------------5p0---------5p0----------------------------------------|
    G:------------0-5p0-------7-5p0-------7-5p0---5p0----------------------------|
    D:5-------7---------7-----------7-----------7-----7-5p0---7-5-0----------7---|
    A:--0-0-0---0-------------------------------------------7----------0-0-0---0-|
    E:---------------------------------------------------------------------------|
    
    e:---------------------------------------------------------------------------|
    B:---------------------------------------------------------------------------|
    G:----------------5----------------------------------------------------------|
    D:----5-------7---5--------7-------5-------7-------------7-------5-------7---|
    A:0-0---0-0-0---0----0-0-0---0-0-0---0-0-0---0-3~--0-0-0---0-0-0---0-0-0---0-|
    E:---------------------------------------------------------------------------|…
  • /tremelo picking.
    --------------------------|-----------------------0-3-5--|
    --------------------------|---------------5--------------|
    -------------------0h2----|-----2h4--0h5-----0h5---------|
    ----------2-------2-------|------------------------------|
    0h2--2h3-----2h3----------|------------------------------|
    --------------------------|------------------------------|…
  • Gtr I (E A D G B E) - 'Eddie Van Halen - dist electric'
    Gtr II (E A D G B E) - 'Eddie Van Halen - Synth arr. for guitar'
    
    Intro
      Q=96
     4/4
      Gtr II
         PM-------------------------------------------
      E. S S S S S   S S…
  • Part 1:
    
    e|-------------------------------------------------0-2--|
    B|-----------------------------------------------3------|
    G|------4-------4-------4-------4----------4---2--------|
    D|----4-------2-------0-------0----------0---0----------|
    A|--2-----2-0-----0--------------------2----------------|
    E|------------------3-----3-2-----2~-0------------------|
    
    Part…
  • ~~~~~~~~~~~~~~~~
    E---------------------------------------------------------------|
    B------14^-(14)--(14)-(14)-X--15^-12^-12-(12)-(12)-(12)---------|
    G----X---------------------X------------------------------------|
    D--X------------------------------------------------------------|
    A---------------------------------------------------------------|
    E---------------------------------------------------------------|…
  • guitar solo for so this is love
    I slowed it down to 3/7 speed and figured out this much
    
    
    E------------------------------------------------------------
    B------------------------9b----------------------------------
    G--------------------7---9b-------9b-7----9^10^9-7-----------
    D---------------7-^9---9---------------9---------------------
    A--------5-7/-9----------------------------------------------
    E------------------------------------------------------------…
  • *** Intro ***
         D/F#      G5         D/F#     G      D/F#   G      A
    --------------------------------|--------------------------------|
    -----3----3----3---3------3-----|--0------3------0------2---2----|
    -----2----2----0---0------2-----|--0------2------0------2---2----|
    -----0----0----0---0------0-----|--0------0------0------2---2----|
    -----0----0---------------0-----|---------0-------------0---0----|
    -----2----2----3---3------2-----|--3------2------3---------------|…
  • Intro : (After Piano does its intro)
    
    (0:25)       (0:30)   (0:33)
    e---------------------------------------|
    b---------------------------------------|
    g--7~~~~~~~---3~~~~----5~~~~---5-5--7~~-|
    d--7~~~~~~~---3~~~~----5~~~~---5-5--7~~-|
    a--5~~~~~~~---1~~~~----3~~~~---3-3--5~~-|
    e---------------------------------------|
    
    Guitar…
  • Standard tuning
    Key : H : hammer on
    w/bar : Dip using your wammy bar
    
    [--------------------------------]
    [--------------------------------]
    [--------------------------------]
    [------5----------------------7--]
    [---7--------7(h)9--------9---5--]
    [-0-----------------------7------]…
  • Intro (bogus, but just in case a piano isn't handy... :-)
    
                     C      Em    F           Dm     Am     Bb
            e|-------0------0-----1---------0-1----1--0---------------------|
            B|-----0-1----1-0-----1-----1-3---3--1----1-1---3---------------|…
  • -0----------1---------|-0-------------------2--------|-0---------1------------
    -0----------1---------|-0-------------------5--------|-0---------1------------
    -0----------2---------|-0---------5---------4--------|-0---------2------------
    -2----------3---------|-2---------5---------4--------|-2---------3------------
    -3----------3---------|-3---------3---------2--------|-3---------3------------
    -3--------------------|-3----------------------------|-3----------------------…
  • INTRO    (Part A)
    e:----------------------------------------------------------------------|
    B:----------------------------------------------------------------------|
    G:----------------------------------------------------------------------|
    D:-----6------------------------------4---------------------------------|
    A:-----7~------5--------4-------------5~-------4--------2---------------|
    E:3-4-----r(0)----r(0)-----r(0)-r(0)------------r(0)-----r(0)-----3-4---|…
  • Tune down 1/2 step
    
    E-----------------------------------------------------------------------
    B-----------------------------------------------------------------------
    G------4-----5-----6-----7-----8-----9-----10-----11------12------13----
    D---2-----3-----4-----5-----6-----7-----8------9------10------11--------
    A-----------------------------------------------------------------------
    E-----------------------------------------------------------------------…
  • the first part is tapped 12 frets above the position on the neck.
    0 corresponds with 12, 2 with 14, and so on.
    
    
    ------------------------------------------------|
    ---------------------0-----------------1--3--0--|
    ------------------2-----2-----------2-----------|
    ------------2--2-----------------2--------------|
    ------2--2--------------------0-----------------|
    0--0--------------------------------------------|…
  • ________________
    Main Riff (intro)		1,2,3| 4
    -------------------------------------|---------------------------|
    -------------------------------------|---------------------------|
    ----2-H-H--2----2-2-----------------.|---------------------------|
    --2-2--3-4-2----2-2-----P---X-5-5/6-.|-7-64---------------------|
    --------------------4--5-2--X-5-6/7--|-5-42---------------------|
    --------------2----------------------|---------------------------|…
  • first the intro.
    
    
    ---------------------------------------|
    -13--------12----------7---------------|
    -14--------12----------7-----5--------|
    -14--------12----------7-----5--------|
    --0------------------------------------|
    ---------------------------------------|…
  • Standard Tuning: Eb Ab Db Gb Bb eb
    
         A5
    
          bar -1.5 (slowly let bar up--------------------------------------------
    
    eb:--0--(0)-----------------------------------------------------------------|
    Bb:--2--(2)-----------------------------------------------------------------|
    Gb:--2--(2)-----------------------------------------------------------------|
    Db:--2--(2)-----------------------------------------------------------------|
    Ab:--0--(0)-----------------------------------------------------------------|
    Eb:--------------------------------------------------------------------------|…
  • ------1--1--1-----------0--1-----3--3--3------------1--------0--1-------|
    ------3--3--3-----------3--3-----3--3--3------------3--3-----3--3-------|
    ------2--2--2-----------3--3-----0--0--0------------2--2-----3--3--0----|
    ------------------0------------------------------------------------0----|
    ------------------------------------------------------------------------|
    153---------------------------------------/6--------------------------|…
  • With effects(reverb, chorus, flange, harmonizer, delay, distortion)
    INTRO
    :----------|--x-x-----------|----------------|--x-x-----------|
    :----------|--x-x-----------|2-2-3-----------|--x-x-----------|
    :----------|--x-x-----------|2-2-2-----------|--x-x-----------|
    :----------|2-x-x-----------|2-2-4-----------|2-x-x-----------|
    :------2H5-|2-x-x-------2H5-|0-0-0-------2H5-|2-x-x-------2H5-|
    :0-3H5-----|0-x-x-0-3H5-----|------0-3H5-----|0-x-x-0-3H5-----|…
  • Intro:
    ----------------|-----------------------------|-------------------------------------|
    ----------------|-----------------------------|-------------------------------------|
    ----------------|-----------------------------|-------------------------------------|
    ----------0-----|------------x-----------0----|------------------------0------------|
    --3-2-3-3---2-0-|-3-3-2---3--x-0--3-2-3-3-2-0-|-3-3-2--2-3--3--3-2-3-3---32---0----|
    ----------------|-------0-0----0--------------|-0-----------------------------------|
    
    
    -----------------------------------|------------------------------|
    -----------------------------------|------------------------------|
    -----------------------------------|------------------------------|
    ------------x-x--------------0-----|------------------------0-----|
    -3-3-2---3--x-x------3-2-3-3---2-0-|-3-3-2-2-3-2-3--3-2-3-3---2--0|
    -0-----0--------0-0----------------|------------------------------|
    
    -----------5----------5------5--5------------------------|
    -8--7------5----------5------5--5------------------------|
    -7--7------6----------6------6--7--6---------------------|
    -7--7----------------------------------------------------|
    ------0-0-----0---------0--------------------------------|
    ----------------0-0-------0------------------------------|
    
    
    
    ill…
Наверх