Аккорды «Vangelis»

Vangelis
Вангелис (Vangelis) - композитор и исполнитель электронной музыки с мировым именем. Его настоящее имя - Евангелос Одиссеас Папатанассиу (Evangelos Odysseas Papathanassiou). Он родился 29 марта 1943 года в греческом городе Волос (Volos). Самые его известные композиции - тема из фильма «Колесницы огня» (Chariots of Fire), получившая в 1981 году премию Американской киноакадемии «Оскар»; саундтрек к фильму «Бегущий по лезвию» (Blade Runner); мелодии, использованные в «Космосе» (Cosmos) Карла Сагана. Он… Читать полностью... Вангелис (Vangelis) - композитор и исполнитель электронной музыки с мировым именем. Его настоящее имя - Евангелос Одиссеас Папатанассиу (Evangelos Odysseas Papathanassiou). Он родился 29 марта 1943 года в греческом городе Волос (Volos). Самые его известные композиции - тема из фильма «Колесницы огня» (Chariots of Fire), получившая в 1981 году премию Американской киноакадемии «Оскар»; саундтрек к фильму «Бегущий по лезвию» (Blade Runner); мелодии, использованные в «Космосе» (Cosmos) Карла Сагана. Он начал писать музыку в конце 60-х, в своей родной стране, вместе с группой «Forminx». Вскоре он переехал в Париж и стал играть в составе более известной группы, Aphrodite’s Child с Демисом Руссосом (Demis Roussos) и Лукасом Сидерасом (Lucas Sideras). Некоторые их песни стали хитами, прежде всего «Rain and Tears». Когда группа распалась, ходили слухи, что Вангелис будет играть в составе группы Yes, потому что он сильно подружился с их вокалистом, Джоном Андерсоном (Jon Anderson). Но Вангелис начал писать саундтреки к фильмам - и это стало его основным занятием. В середине 70-х Вангелис стал писать гораздо больше и выпустил несколько сольных альбомов, в том числе «Heaven and Hell», «Albedo 0.39», «Spiral» и новаторский «Beaubourg». Тогда же он все-таки начал работать с Джоном Андерсоном, и под именем «Jon & Vangelis» вышли альбомы «Short Stories», «The Friends of Mr. Cairo» и «Private Collection». Затем в 1982 году вышли самые известные его работы - саундтреки к фильмам «Колесницы огня» и «Бегущий по лезвию». С тех пор он выпустил немало сольных альбомов и саундтреков, в том числе музыку к фильмам «1492 - Завоевание Рая» (1492 Conquest of Paradise) и «Александр» (Alexander). В 1992 году во Франции Вангелис был произведен в Кавалеры Ордена Литературы и Искусства. В 2001 году его симфонический альбом «Mythodea» выбрали в качестве музыки к миссии NASA «Одиссея на Марс». В его честь названа малая планета Вангелис. Скрыть...
Популярные аккорды Vangelis:
алфавиту | просмотрам | случайно
  • part 1
    e/------------------------------------------------------|
    b/----------9---11---9----------------------------------|
    g-------11----------------------------------------------|
    d----11------------------11-----------------------------|
    a-------------------------------------------------------|
    e-------------------------------------------------------|
    
    Part…
  • Part I
         Dm        A       Dm        A C F         C       Bb        A
    e--------------------------------------------------------------------|
    b--------------------------------------------------------------------|
    g------------------------------------2-0-------0---------------------|
    D----3-2-0---0-2-------3-2-0---0-2-------3-2-3---2---------0---------|
    A--0-------4-----4-0-0-------4-----3---------------3-3-1-3---3-1-0---|
    E--------------------------------------------------------------------|
    
    
    Part…
  • [D]        [A] [G][A]
    You ask me where to begin
             [D]       [A] [G][A]
    Am I so lost in my sin
    You ask me where did I fall
    I'll say I can't tell you when
              [#Fm]     [Bm] [G][A]
    But if my spirit is lost…
Наверх