Аккорды «Vanilla Sky»

Vanilla Sky
Бойкая молодая итальянская рок-группа, сразившая наповал всю Европу убойной и саркастичной кавер-версией супер-хита "Umbrella" Рианны. Vanilla Sky – это самая молодая и самая яркая группа на итальянской альтернативной сцене сегодня. Точкой отсчета для коллектива считается 2002 год, когда Vanilla Sky выпустили свой демо-диск, который был полностью раскуплен за 2 месяца. Настоящим прорывом для них стал альбом “Waiting For Something”, который был выпущен в Италии, Германии, Австрии, Франции, Англии,… Читать полностью... Бойкая молодая итальянская рок-группа, сразившая наповал всю Европу убойной и саркастичной кавер-версией супер-хита "Umbrella" Рианны. Vanilla Sky – это самая молодая и самая яркая группа на итальянской альтернативной сцене сегодня. Точкой отсчета для коллектива считается 2002 год, когда Vanilla Sky выпустили свой демо-диск, который был полностью раскуплен за 2 месяца. Настоящим прорывом для них стал альбом “Waiting For Something”, который был выпущен в Италии, Германии, Австрии, Франции, Англии, Японии и Аргентине. После этого коллектив Vanilla Sky отправился в двухгодичное турне по всей Европе, деля сцену с такими известными группами как Offspring и +44. И вот теперь Vanilla Sky начали покорение России. Их яркая, веселая и достаточно саркастичная версия супер-популярного хита “Umbrella” все больше наступает на пятки своему оригиналу. Не только сингл уже находится в ротации М-Радио и Maximum, но и клип на него сразу же попал в эфир телеканала MTV Россия! Скрыть...
Популярные аккорды Vanilla Sky:
алфавиту | просмотрам | случайно
  • B                 F#               e
    
    E-7-6-4-----------------------------2--4-p2-4-p2-4-p2-4-p2-4-p2-4-6-7-6-7-|
    A-------7-5-4-2-0---------------------------------------------------------|
    D-----------------4-3-1---------------------------------------------------|
    G------------------------4-2-1--------------------------------------------|
    H------------------------------2-1----------------------------------------|
    E-------------------------------------------------------------------------|
    
    All…
  • Tuning: Half Step Down 
    
    Intro/Vers:
    
    |------------------------------------|
    |----------0-----------------0-------|
    |------2-----2---2-------2-----2---2-|
    |----0---0-----0-------0---0-----0---|
    |--2-----------------2---------------|
    |------------------------------------|
    
    
    |------------------------------------|
    |----------0-----------------0-------|
    |------2-----2---2-------2-----2---2-|
    |----0---0-----0-------0---0-----0---|
    |--0-----------------0---------------|
    |------------------------------------|
    
    
    |------------------------------------|
    |----------0-----------------0-------|
    |------2-----2---2-------2-----2---2-|
    |----0---0-----0-------0---0-----0---|
    |------------------------------------|
    |--3-----------------3---------------|
    
    |------------------------------------|
    |----------0-----------------0-------|
    |------2-----2---2-------2-----2---2-|
    |----0---0-----0-------0---0-----0---|
    |--0-----------------0---------------|
    |------------------------------------|
    
    
    Chorus:
    
    |----------------------------------------------------------------------|
    |----------------------------------------------------------------------|
    |--4-4-4-4-4-4-----2-2-2-2-2-2----7-7-7-7-7-7--------------------------|
    |--4-4-4-4-4-4-----2-2-2-2-2-2----7-7-7-7-7-7---5-5-5-5-5-5------------|
    |--2-2-2-2-2-2-----0-0-0-0-0-0----5-5-5-5-5-5---5-5-5-5-5-5------------|
    |-----------------------------------------------3-3-3-3-3-3------------|
    
    
    |----------------------------------------------------------------------|
    |----------------------------------------------------------------------|
    |--4-4-4-4-4-4-----2-2-2-2-2-2-----------------------------------------|
    |--4-4-4-4-4-4-----2-2-2-2-2-2----5-5-5-5-5-5---5-5-5-5-5-5------------|
    |--2-2-2-2-2-2-----0-0-0-0-0-0----5-5-5-5-5-5---5-5-5-5-5-5------------|
    |---------------------------------3-3-3-3-3-3---3-3-3-3-3-3------------|
    
    
    Bridge:
    
    |----------------------------------------------------------------------|
    |----------------------------------------------------------------------|
    |----------------------------------------------------------------------|
    |--2-2-2-2-2-2-----5-5-5-5-5-5----9-9-9-9-9-9---7-7-7-7-7-7------------|
    |--2-2-2-2-2-2-----5-5-5-5-5-5----9-9-9-9-9-9---7-7-7-7-7-7------------|
    |--0-0-0-0-0-0-----3-3-3-3-3-3----7-7-7-7-7-7---5-5-5-5-5-5------------|
    
    |----------------------------------------------------------------------|
    |----------------------------------------------------------------------|
    |----------------------------------------------------------------------|
    |--2-2-2-2-2-2-----5-5-5-5-5-5----9-9-9-9-9-9---7-7-7-7-7-7------------|
    |--2-2-2-2-2-2-----5-5-5-5-5-5----9-9-9-9-9-9---7-7-7-7-7-7------------|
    |--0-0-0-0-0-0-----3-3-3-3-3-3----7-7-7-7-7-7---5-5-5-5-5-5------------|…
  • Tuning: down S step
    
    intro/verse:
    
    eb|---------------------------------|
    Bb|---------------------------------|
    Gb|-----------------2-2-2-2-2-2-2-2-|
    Db|-6-6-6-2-2-2-2-2-2-2-2-2-2-2-2-2-|
    Ab|-4-4-4-2-2-2-2-2-0-0-0-0-0-0-0-0-|
    Eb|-4-4-4-0-0-0-0-0-----------------|
    
    pre-chorus:
    
    eb|-------------------------------------------------------------------|
    Bb|-------------------------------------------------------------------|
    Gb|-4-4-4-4-4-4-4-4---------------------------------2-2-2-------------|
    Db|-4-4-4-4-4-4-4-4-2-2-2-2-2-2-2-2-6-6-6-2-2-2-2-2-2-2-2-2-2-2-2-2---|…
  • [G]Grey Is the sky[C] today [G]and so is my [C]heart.
    [C]Memories of a [Em]friendship that [D]now seems so [G]far.
    [G]Chased dreams of past days. I was really [C]fine.
    [C]I've never thought my [Em]best friends could [D]ruin…
  • first guitar  (part1)				      (part2)
    ------------------------------------------------      -------------------|
    ----------5-------------5---------5----------5--      ----------5--------|
    ------2--------------2---------2----------2-----3v…
  • Gm
    Se guardi in faccia la realtà non vedi neanche la metà
     Cm                       Eb
    E quel che vedi è solamente percezione tua
     Gm
    Quello che pensano di me quello che penso io di te
      Cm
    Ci stiamo allontanando…
  • Intro
    
    
    |-2222222222222222-| => do this until verse 1 starts...
    |-3333333333333333-|
    |-2222222222222222-|
    |------------------|
    |------------------|
    |------------------|
    
    Verse I.
     This would be like .....||If…
  • # intro and verse 1
    use a CAPO on 2nd fret
    and go like this
    e|--------------------------------------|
    B|--------------------------------------|
    G|--4---4----4---4----4---4----4---4----|
    D|--4---4----4---4----4---4----4---4----|
    A|----2---2-----------------------------|
    E|-------------0---0----4---4----2---2--|
    
    or…
  • Verse 0:16
    		X3
    G|-----|---11--------------------------|
    D|-14\-|------9-11---11-12-------------| 
    A|-----|-9-----------------------------|
    E|-----|-------------------------------|
    
    Pre-chorus 0:30
    
    G|-14-------14-------14-------14-------|
    D|----14-14----14-14----14-14----14-14-|
    A|-------------------------------------|
    E|-------------------------------------|
    
    Chorus…
  • Intro: G D Cadd9 (2x, sustained 2nd time)
    
    Verse 1
    G  D   Cadd9
    
    G   D  Cadd9 
    
    G  D   Am7  F   Em   D  Cadd9 (sustained)
    
    G  D   Cadd9
    
    G   D  Cadd9 
    
    G  D   Am7  F   Em   D  Cadd9 (sustained)
         
    Chorus
    
    G…
Наверх