Аккорды «Venom»

Venom
Английская команда, являющаяся основателем трэш-метала и авторами термина «блэк-метал», оказала большое влияние на творчество таких коллективов, как Metallica, Slayer и Possessed. Группа была основана в конце семидесятых годов в Ньюкасле Кроносом (Конрад Лэнт; бас, вокал), Мантасом (Джефф Данн; гитара) и Абаддоном (Тони Брэй; ударные). Коллектив тогда назывался Oberon и включал в себя еще двух человек. Но вскоре группа сократилась до трио и сменила название на Venom. В начале карьеры в их музыке… Читать полностью... Английская команда, являющаяся основателем трэш-метала и авторами термина «блэк-метал», оказала большое влияние на творчество таких коллективов, как Metallica, Slayer и Possessed. Группа была основана в конце семидесятых годов в Ньюкасле Кроносом (Конрад Лэнт; бас, вокал), Мантасом (Джефф Данн; гитара) и Абаддоном (Тони Брэй; ударные). Коллектив тогда назывался Oberon и включал в себя еще двух человек. Но вскоре группа сократилась до трио и сменила название на Venom. В начале карьеры в их музыке было заметно влияние Motorhead. Их легендарный дебютный альбом 1981 года, «Welcome To Hell», являлся собранием брутальных композиций, наполненных темными, сатанинскими образами и был немного сыроватым. Диск «Black Metal» был уже намного лучше сработан как в музыкальном, так и в продюсерском плане. Среди мощного трэша на нем присутствовала атмосферная композиция «Burried Alive». Альбом остается до сих пор самым лучшим в дискографии Venom. За ним последовал полуконцептуальный «At War With Satan», сопровождаемый множеством синглов. Группа много гастролировала по всему миру, предпочитая выступать везде в качестве хедлайнеров (от других предложений Venom просто отказывались). Клубные концерты коллектив практически не давал, поскольку его пиротехник умудрялся наносить большой ущерб в закрытых помещениях. Следующий лонгплей, «Possessed», оказался довольно слабым, за ним последовали неудачные концертники и сборники. В команде наблюдался творческий застой, в результате чего, после выхода концертника «Eine Kleine Nachtmusik», в 1985 году Мантас принял решение покинуть группу. Для гастролей в Venom были приглашены гитаристы Майк Хики и Джимми Клэр. В этой конфигурации команда записала мощный пауэр-метал-альбом «Calm Before The Storm». Однако, вскоре после этого состав группы покинул Кронос, прихватив с собой Майка и Джимми. Вместе с ними он организовал свой собственный проект Cronos. К оставшемуся Абаддону вновь присоединился Мантас, приведя с собой ритм-гитариста Эла Барнса. Новый состав Venom был доукомплектован Тони Доланом «Разрушителем» (бас, вокал; экс-Atomkraft). Альбом «Prime Evil» отличался высоким профессионализмом и напоминал раннее творчество группы. Диск включал в себя трек «Megalomania» – интересную кавер-версию композиции Black Sabbath. После релиза 1991 года «Temples Of Ice» из команды свалил Барнс, а в состав были добавлены гитарист Стив «Военный маньяк» Уайт и клавишник VXS. Последние двое продержались недолго и после выхода альбома 1992 года «The Waste Lands» покинули состав Venom. Последующие работы не смогли дотянуть до качества более ранних релизов. В 1996 году, сменив Долана, в группу вернулся Кронос. За этим событием последовал мини-альбом «Venom’96», а в следующем году вышел лонгплей «Cast In Stone», содержавший как новые (CD1), так и переработанные старые записи (CD2), после чего коллектив отправился в мировое турне. В 1999 году Брей покидает группу, на его место приходит брат Ланта, Энтони «Antton» Лант. Этим составом был записан новый полноформатный альбом «Resurrection», который выходит в 2000 году на SPV. В 2002 году Данн вновь покидает формацию, а его место занимает теперь Хики. В конце 2005 года группа выпускает коллекционное издание своих релизов под названием «MMV», помещённое на 4-х дисках. Здесь были собраны наиболее известные треки группы, раритетные записи, демо, концертные записи и пр. Этим же составом был выпущен следующий полноформатник под названием «Metal Black», релиз которого состоялся в марте 2006 года. В 2007 году Хики уходит из группы, а новым гитаристом Venom становится Rage. Этим составом группа отправляется в студию для записи студийного альбома «Hell», который выходит летом 2008 года. После этого группу покидает и Энтони Лант для того, чтобы сконцентрироваться на своём собственном проекте. Новым ударником становится Дэнни «Dante» Нидхэм. В январе 2011 года Venom сообщают о том, что началась работа над новым материалом для 13-го полноформатника. Спустя несколько месяцев работы в студии, в ноябре этого же года на Spinefarm Records выходит в свет «Fallen Angels». Скрыть...
Популярные аккорды Venom:
алфавиту | просмотрам | случайно
  • Intro
    
    
    G|--------------------------------------------
    D|--------------------------------------------
    A|--------------------2---2-4-----2---2-4-----
    E|3-4-5-0-4-3-4-5-0-4---4-----3-4---4---------
    
    G|--------------------------------------------
    D|--------------------------------------------
    A|------2---2-4-----2---2-4-------2-2-4-2-----
    E|5-0-4---4-----3-4---4-----5-0-4---------4---
    
    verse
    
    G|---------------------------------------------------------
    D|---------------------------------------------------------
    A|-----2-2-4-2--------2-2-4-2-------2-2-4-2-----2-2-4-2----
    E|4x-4---------4-2x-4---------4-0-4---------4-4---------4-4
    
    chorus
    
    G|-----------------------
    D|1-----------1----------
    A|-----------------------
    E|--3x-2-5-1x---3x-2-5-1-
    
    bridge
    
    G|--------------------------------------------------
    D|----4-6-4-------4-6-4-------4-6-4-------4-6-4-----
    A|6-6-------6-6-6-------6-6-6-------6-6-6-------6-5x
    E|--------------------------------------------------
    
    G|-----------------------------
    D|-----------------------------
    A|2x-1-2-1-0x------------------
    E|------------4-5-4x-5-4x-5-4x-
    
    outro
    
    G|-----------------------------
    D|-----------------------------
    A|-----------------------------
    E|4-4-4-5-0-4-4-4-5-0----------…
  • Tune Gtr to C #
    
    
    Riff A
    |---------------------------------------------------------------|
    |---------------------------------------------------------------|
    |---------------------------------------------------------------|…
  • Tune Gtr to C#
    
    
    Riff A
    |---------------------------------------------------|
    |---------------------------------------------------|
    |----9---9---9-9----------9---9---9-9---------------| 
    |----9---9---9-9----------9---9---9-9---------------|…
  • E|-------------------|
    B|-------------------|
    G|-555-555-555-555-5-|
    D|-----------------5-|
    A|-----------------3-|
    E|-------------------|
    1x
    
    E|-----------------|
    B|-----------------|
    G|-77-4-5-2-3------|
    D|-77-4-5-2-3--5-4-|
    A|-55-2-3-0-1--5-4-|
    E|-------------3-2-|
    4x
    
    E|------------------------------|---------------------|
    B|------------------------------|---------------------|
    G|--------3-XXXX----------------|--------3-XXXX-------|
    D|-5-XXXX-3-XXXX-3-XXXX-------5-|-5-XXXX-3-XXXX-33-3B-|
    A|-5-XXXX-1-XXXX-3-XXXX-5-3-1-5-|-5-XXXX-1-XXXX-33----|
    E|-3-XXXX--------5-XXXX-------3-|-3-XXXX--------11----|
    1x
    
    E|------------------------------|---------------------|
    B|------------------------------|---------------------|
    G|--------3-XXXX----------------|--------3-XXXX-------|
    D|-5-XXXX-3-XXXX-3-XXXX-------5-|-5-XXXX-3-XXXX-5-4-3-|
    A|-5-XXXX-1-XXXX-3-XXXX-5-3-1-5-|-5-XXXX-1-XXXX-5-4-3-|
    E|-3-XXXX--------5-XXXX-------3-|-3-XXXX--------3-2-1-|
    1x
    
    E|---------------------|
    B|---------------------|
    G|-7--3-2---5--7-XX-77-|
    D|-7--3-2-5-5--7-XX-77-|
    A|-5--1-0-5-3--5-XX-55-|
    E|--------3------------|
    2x
    E|------------------------------------|
    B|------------------------------------|
    G|-33-X-33--22-X-22--55-X-55--55-X-55-|
    D|-33-X-33--22-X-22--55-X-55--55-X-55-|
    A|-11-X-11--00-X-00--33-X-33--33-X-33-|
    E|------------------------------------|
    1x
    
    E|-----------------|
    B|-----------------|
    G|-77-4-5-2-3------|
    D|-77-4-5-2-3--5-4-|
    A|-55-2-3-0-1--5-4-|
    E|-------------3-2-|
    4x
    
    E|---------------------|
    B|---------------------|
    G|-7--3-2---5--7-XX-77-|
    D|-7--3-2-5-5--7-XX-77-|
    A|-5--1-0-5-3--5-XX-55-|
    E|--------3------------|
    2x…
  • Tune Gtr to C#
    
    
    Riff A
    |----------------------------------------------------------------|
    |----------------------------------------------------------------|
    |----------------------------------------------------------------|…
  • Tune Gtr to C# (1,5 STEPS DOWN)
    
    
    Riff A
    |--------------------------------------------------------------------|
    |--------------------------------------------------------------------|
    |--------------------------------------------------------------------|…
  • Tune Gtr to C#
    
    
    Riff A
    |--------------------------------------------------------------------|
    |--------------------------------------------------------------------|
    |--------------------------------------------------------------------|…
  • Tune Gtr to C#
    
    
    Riff A
    |--------------------------------|
    |--------------------------------|
    |------7-----3-------------------|
    |----7-----3----5---7---CLEAN----| 
    |--5-----1------5---7------------|
    |---------------3---5------------|
    
    Riff…
  • Tune down guitars three half-steps (to C#)
    
    
    Intro - Riff 1 (guitar and drums only first time)
    
    
    
    ||---------------------|-----------------|-------------------|
    
    ||-o-------------------|-----------------|-------------------|
    
    ||--------5-----5------|-5-----5----7~~--|------5-----5------|
    
    ||-o------5-----5------|-5-----5----7~~--|------5-----5------|
    
    ||----0-0---0-0---0-0--|---0-0-----------|--0-0---0-0---0-0--|
    
    ||---------------------|-----------------|-------------------|
    
    
    
    (Bass…
  • Tune to D.
    
    Riff 1 (You dont sing the first time you play this riff I?m
    just throwing in the lyrics so you know how it goes with the
    music)
    
    G|--2----2------------------|--2----2------------------|
    D|--2----2------------------|--2----2------------------|
    A|--0----0----5p0--3p0------|--0----0----5p0--3p0------|
    E|----------------------3---|----------------------3---|…
  • Tune Gtr to C#
    
    
    Riff A
    |--------------------------------------------------------------|
    |--------------------------------------------------------------|
    |---------------------------4---------------------------4------| 
    |--------------2h4h5--------4--------------2h4h5--------4------|
    |--------2h4h5-------2h4h5--2--------2h4h5-------2h4h5--2------|
    |--2h4h5-----------------------2h4h5---------------------------|
    
    Riff…
  • Tune Gtr to C#
    
    
    Riff A
    |--------------------------------------------------------------------|
    |--------------------------------------------------------------------|
    |--------------------------------------------------------------------|…
  • Tune Gtr to C#
    
    
    Riff A
    |--------------------------------------------------------|
    |--------------------------------------------------------|
    |--------------------------------------------------------| 
    |--------------------------------------------------------|…
  • Tune Gtr to C#
    
    
    Riff A
    |------------------------|
    |------------------------|
    |------------------------| 
    |------------------------| 
    |--------2-------4/5-----|
    |--0-0-0-0-0-0-0-2/3-----|
    
    Riff B
    |-----------------------------|
    |-----------------------------|
    |-----------------------------|…
  • Tune Gtr to C#
    
    
    Riff A
    |-----------------------------------------------------------------|
    |-----------------------------------------------------------------|
    |-----------------------------------------------------------------|…
  • Tune Gtr to C# 		
    
    Riff A
    |----------------------------------------------------------|
    |----------------------------------------------------------|
    |----------------------------------------------------------| 
    |----------------------------------------------------------|…
  • Tune Gtr to C# (1.5 STEPS DOWN)
    
    
    Riff A
    |--------------------------------------------------------------------|
    |--------------------------------------------------------------------|
    |--7/9--9--7/9--9-----------7/9--7-9-10------------------------------|…
  • Tuning is down 1 and 1 half steps for this song
    /=slide
    a.h= artificial harmonics
    ~=vibrato
    
    
    riff1-4
    
    e-------------------------------------------------------------------
    b-------------------------------------------------------------------
    g---13~---14----------------a.h---a.h----a.h-------------------------
    d------------14--13--12-----9-----7------5---------------------------
    a-------------------------------------------------------------------
    E-------------------------------------------------------------------
    
    riff2
    e-------------------------------------------------------------------
    b-------------------------------------------------------------------
    g-------------------------------------------------------------------
    d--4---3----3/--9-…
  • Drop D tuning
    
    The Seven Gates of Hell
    
    A
    |----------------------|---------------------------------------------|
    |----------------------|---------------------------------------------|
    |----------------------|---------------------------------------------|
    |----------------------|--0-------5/7--7-----------------------------|…
  • Tune Gtr to C#
    
    
    Riff A
    |---------------------------------------|
    |---------------------------------------|
    |---------------------------------------| 
    |---------------------------------------| 
    |--7-5---5------------------------------|
    |------7---7-6-5-3-5-4-3-1-3-2-1--------|
    
    Riff…
Наверх