Аккорды «Veruca Salt»

Veruca Salt
Во главе с гитаристками/вокалистками Луизой Пост и Ниной Гордон, а также басистом Стивом Лаки и барабанщиком Джимом Шапиро (брат Гордон), Veruca Salt выпустили свой дебютный сингл «Seether” в 1994 году на основанном в Чикаго независимом лейбле “Minty Fresh”. Спродюсированный Брэдом Вудом (Brad Wood) из Liz Phair альбом стал настоящей сенсацией, благодаря частым эфирам на альтернативных и колледжских радиостанциях. Съездив в тур на разогреве у Hole, Veruca Salt выпускают свой дебютный альбом… Читать полностью... Во главе с гитаристками/вокалистками Луизой Пост и Ниной Гордон, а также басистом Стивом Лаки и барабанщиком Джимом Шапиро (брат Гордон), Veruca Salt выпустили свой дебютный сингл «Seether” в 1994 году на основанном в Чикаго независимом лейбле “Minty Fresh”. Спродюсированный Брэдом Вудом (Brad Wood) из Liz Phair альбом стал настоящей сенсацией, благодаря частым эфирам на альтернативных и колледжских радиостанциях. Съездив в тур на разогреве у Hole, Veruca Salt выпускают свой дебютный альбом «American Thighs», на лейбле «Minty Fresh». Но вскоре группа подписывает контракт с «Geffen», где они и перевыпускают альбом. Трек с альбома «Seether» стал хитом на MTV, и скоро группа получила международную известность. Дебютный альбом коллектива был посвящен главным образом темам феминизма. Однако, группа получила ужасные отзывы от музыкальных критиков, обвиняющих группу в использовании доверия «Minty Fresh» и что Veruca Salt это не альтернативная группа, а лишь вывеска для зарабатывания денег, т.е. поп-группа. Тем не менее, популярность группы от этого не пострадала, а «American Thighs» получили «золотой» статус, притом, что следующие два сингла «Number One Blind» и «All Hail Me» - не получили и половину успеха «Seether”. Отметившись синглом «Blow It Out Your Ass, It’s Veruca Salt», который продюсировал Стив Альбини, в 1996 году, группа возвращается в начале 1997 с новым альбомом “Eight Arms To Hold You”. В этом альбоме Veruca Salt уклонилась в сторону хард-рока и тяжелого металла. Хотя критика не сей раз была различна, альбом все еще достиг “золотого” статуса. Вскоре после выхода альбома Шапиро оставил группу, и был заменен бывшим барабанщиком группы Letters To Cleo Стэйси Джонсом. Тем временем, стали распространяться слухи, что Гордон и Пост решили заняться сольной карьерой и распустить группу. Что было отчасти подтверждено в начале 1998 года, когда Нина Гордон решила оставить Veruca Salt и выпустить свой сольник. Не удивленная таким поведением подруги Луиза Пост сформировала по новому Veruca Salt, но уже как свой сольный проект. В новый состав группы вошли: гитарист Стефан Фицпатрик, басистка Сюзанн Сокол и барабанщик Джимми Мадла. Вслед за всеобщим слиянием звукозаписывающих компаний, не обошедшей стороной и «Geffen», Пост успела подписать новый выгодный контакт с лейблом “Beyond”. После некоторого затишья новый состав Veruca Salt засел в студии, и вышел оттуда с альбомом “Resolver”, который был выпущен весной 2000 года. Луиза Пост, в интервью после выхода альбома заявила, что последние два года дали возможности для роста и фанаты смогут услышать новую музыку. Скрыть...
Популярные аккорды Veruca Salt:
алфавиту | просмотрам | случайно
  • Intro: (light distortion/softly)
    
        E            G    A
    e|------------------------------------|
    B|------------------------------------|
    G|------------------------------------|
    D|--2-2-2---2-2--5-5--7-7-7-----------|
    A|--2-2-2---2-2--5-5--7-7-7-----------|
    E|--0-0-0---0-0--3-3--5-5-5-----------|…
  • Drop D tuning (DADG)
    
    simple song, just goes along with the rhyhtm guitar.
    
    Intro/verse:
    
    G|-----------
    D|-----------
    A|-3h5-5-5-5-    x20
    D|-----------
    
    Pre chorus:
    
    G|-----------------------------------------------------------
    D|-----------------------------------------------------------
    A|-----------------------------------------------------------
    D|-3-5-3-0-(let…
  • [Intro]
    
      A#
    
      A# G# C# A# C#
    
    
    [Verses]
    (palm muted)
    
    A#
    
    A#                   G#
       Seether is neither  loose nor tight
    A#                   G#
       Seether is neither  black nor white
    
    
       A# G      D#            A#…
  • A5: 577XXX      G5: 355XXX      G: 55XXXX      B: 99XXXX      
    F#5: 44XXX     A: 77XXXX       F: 33XXXX       E: 022XXX
    
    
    Intro:
                     A5       G5     D5     F#5  C#5
    -----------------------------------------------------------------------
    -----------------------------------------------------------------------
    -----------------------------------------------------------------------
    -----------------------------------------------------------------------
    -----------------7---------5------5------9-----4-----4----4--4----4----
    -0-----0----0----5----0----3------5------9-----4-----4----4--4----4----
    
    
    
    -----------------------------------------------------------------------
    -----------------------------------------------------------------------
    -----------------------------------------------------------------------
    -----------------------------------------------------------------------
    -4---4---4---4---4---4---4---------------------------------------------
    -4---4---4---4---4---4---4---------------------------------------------
    
    
    
    A…
  • D5-10,12,x,x,x,x  E5-0,2,x,x,x,x  F5-1,3,x,x,x,x
    
    Riff 1 play 6x
    e--------------------------------------------------|
    B--------------------------------------------------|
    G--------------------------------------------------|
    D-3--3--3-s-11-10-10-10-10-10-10-10-10-10-10-10-10-|
    A-3--3--3-s-9--10-10-10-10-10-10-10-10-10-10-10-10-|
    E-1--1--1-s-9--8--8--8--8--8--8--8--8--8--8--8--8--|
    1st…
  • *Riff 1
    e-------------------------------------------------|
    B-------------------------------------------------|
    G-------------------------------------------------|
    D-------7--7--7--7--7-s-4--4--4--4--4--4----------|
    A-------7--7--7--7--7-s-4--4--4--4--4--4----------|
    E-5--5--5--5--5--5--5-s-2--2--2--2--2--2--0--1--1-|
    									*end…
  • Used chords:
    
    Bb    113331
    Bb(*) 577655
    C     335553
    D#    668886
    F     133211
    F(*)  587565
    G     355433
    
    ********************************************************************
    
    [Verse:]
    C    Bb   F
    Take me a-way
      G    C…
  • Drop D:
    D A D G B E
    
    6/8 time
    
    Intro:
    
    e-------3------------1------------0-------------------8-----------
    b---------3------------1------------0----------------8------------
    g-----------5--3---------3--2---2-----7-----7------10-------------
    d-----3------------1----------------------5------8----------------
    a---3------------1------------0------------------8----------------
    d-3------------1------------0-----------5------8------------------
    
    e-------3------------1------------0-----1--1---3--3---------------
    b---------3------------1------------0---1--1---3--3---------------
    g-----------5--3---------3--2---2-------3--3---5--5---------------
    d-----3------------1--------------------3--3---5--5---------------
    a---3------------1------------0---------1--1---3--3---------------
    d-3------------1------------0-------------------------------------
    
    1st…
  • E A D G B E
    
    ( ) = harmonics
    
    
    1st Verse: Fig 1. x2
    
    ...Zero one,...
    
    e-----------------------------------------------------------------
    b-----------------------------------------------------------------
    g-----------------------------------------------------------------
    d-----------------------------------------------------------------
    a---1-0---5/7-7-----1-0---5/7-7-----1-0---5/7-7-5---5-5-7---7-7-7-
    e-0-----0-------0-0-----0-------0-0-----0-------3---3-3-5---5-5-5-
    
    Pre…
  • Tune Down half step (you don't have to but I tabbed it that way)
    -lightly distorted guitar (overdrive)
    INTRO:
    e---------------------------------------------------------------|
    B---------------------------------------------------------------|
    G----------9---9--9----7-7---10--10-109---9--9-----12----------|
    D--12-12---10--10-10---8-8---10--10-109---10-10/---12----------|
    A--12-12---10--10-10---8-8---8---8--8-7---10-10/---10----------|
    E--10-10---8---8--8----6-6---8---8--8------8--8-/---10----------|…
  • Play that 4 times then:
    
       G5     A#5 A5 G5        A#5 A5 G5
    !-----------------------------------|
    !-----------------------------------|
    !-----------------------------------|
    !--5--5-5-8-8-7--5--5--5-5-8-8-7--5-|
    !--5--5-5-8-8-7--5--5--5-5-8-8-7--5-|
    !--3--3-3-6-6-5--5--3--3-3-6-6-5--3-|
    
    PM…
  • *heavy distortion*
    
    chords used in intro:
    e:--2--0--0--3--|
    B:--3--2--0--0--|
    G:--2--2--2--0--|
    D:--0--2--2--0--|
    A:-----0--2--2--|
    E:--------0--3--|
        D  A  Em G
    
    intro D D A A A Em Em G G G (x2)
    e:-------------------------|
    B:-------------------------|
    G:------------7b-----------|
    D:-----4-sl-7--------------|
    A:-------------------------|
    E:-------------------------|
    do…
  • E A D G B E
    
    * = harmonic
    v = bar dive
    
    Intro: Free Time,  Feedback Pitches
    
    Gtr 1.
    
    e-----------------------------------------------------------------
    b-----------------------------------------------------------------
    g-(8)------------------------(8)---------(9)-(8)---------(9)------
    d-----------------------------------------------------------------
    a-----------------------------------------------------------------
    e-----------------------------------------------------------------…
  • E A D G B E
    
    
    1st Verse: Fig 1.
    
    ...wake up and talk to me...
    
    pm
    e-----------------------------------------------------------------
    b-----------------------------------------------------------------
    g-----------------------------------------------------------------
    d-2-2-2---6-6-6---7-7-7-7-7-7-7---2-2-2---9-9-9---4-4-4-4-4-4-4---
    a-2-2-2---6-6-6---7-7-7-7-7-7-7---2-2-2---9-9-9---4-4-4-4-4-4-4---
    e-0-0-0-0-4-4-4-0-5-5-5-5-5-5-5-0-0-0-0-0-7-7-7-0-2-2-2-2-2-2-2-0-
    
    pm
    e-----------------------------------------------------------------
    b-----------------------------------------------------------------
    g-----------------------------------------------------------------
    d-2-2-------7-7---2-2---9-9-9-9---7-7-7-7-7-7-7-7-7-7-7-7-7-7-7---
    a-2-2-------7-7---2-2---9-9-9-9---7-7-7-7-7-7-7-7-7-7-7-7-7-7-7---
    e-0-0-0-0-0-5-5-0-0-0-0-7-7-7-7-0-5-5-5-5-5-5-5-5-5-5-5-5-5-5-5-0-
    
    Pre…
  • guitar tab
    tuning - normal
    
    s= slide
    b= bend
    
    intro {not very well transcribed, but it's not that important}
    e-----------------------------------------------------------------------|
    B----------------------------x---------------x-----------------10b------|
    G----------------------------x-----5b6---------screechingx-x------------|
    D------------feedback--------x------------x----------------x--x---------|
    A-----------------12---------x----------x-----------------------x-------|
    E-feedback---5s-11------------------------------------------------------|
    
    e-----------------------------------------------|
    B-----------------------------------------------|
    G-----------------------------------------------|…
  • E A D G B E
    
    
    Intro: Fig 1. x3
    
    e-----------------------------------------------------------------
    b-----------------------------------------------------------------
    g-8------------8/11-11------------11/13-13------------13---------
    d-9------------9/12-12------------12/14-14------------14---------
    a-9------------9/12-12------------12/14-14------------14---------
    e-7------------7/10-10------------10/12-12------------12---------
    
    Fig…
  • E A D G B E
    
    
    Intro: Fig 1. (Gtr 1.)
    
    e-----------------------------------------------------------------
    b-----------------------------------------------------------------
    g---------2-2--7-(7)--7--5-5---5----------2-2--7-(7)--7--5-5---5--
    d-2--2-2--2-2--7-(7)--7--5-5---5--2--2-2--2-2--7-(7)--7--5-5---5--
    a-2--2-2--0-0--5-(5)--5--3-3---3--2--2-2--0-0--5-(5)--5--3-3---3--
    e-0--0-0--------------------------0--0-0--------------------------
    
    Riff…
Наверх