Аккорды «Wipers»

Wipers
Wipers — американская панк-рок-группа, созданная Грегом Сэйджом в 1977 году в Портленде, штат Орегон, одни из самых первых представителей жанра в США. В огромной степени повлияла на развитие американской альтернативной рок-музыки, в особенности, на гранж («в истории северо-западного (американского) рока Wipers — это недостающее звено между The Sonics и Nirvana»). В своих Дневниках, опубликованных в 2002 году, Курт Кобейн включил первые три альбома Wipers в свой личный топ 50 лучших альбомов. В начале… Читать полностью... Wipers — американская панк-рок-группа, созданная Грегом Сэйджом в 1977 году в Портленде, штат Орегон, одни из самых первых представителей жанра в США. В огромной степени повлияла на развитие американской альтернативной рок-музыки, в особенности, на гранж («в истории северо-западного (американского) рока Wipers — это недостающее звено между The Sonics и Nirvana»). В своих Дневниках, опубликованных в 2002 году, Курт Кобейн включил первые три альбома Wipers в свой личный топ 50 лучших альбомов. В начале 90-х годов группа Кобейна Nirvana перепела две песни с первого альбома Wipers — Return Of The Rat и D-7. Эти кавер-версии можно найти на бокс-сете Nirvana — With The Lights Out (2004). С самого начала Сэйдж создавал группу в качестве студийного проекта, а не как «рок-группу» в полном смысле этого слова — его сверхзадачей было выпустить 15 альбомов за 10 лет, полностью исключив традиционные гастроли и фотосессии. Первоначальный состав Wipers был: Грег Сэйдж — гитара/вокал, Дуг Коупал — бас-гитара, Сэм Генри — ударные. Группа записала первый альбом Is This Real? практически «вживую» на четырёхдорожечный магнитофон на своей репетиционной точке. Лейбл Park Avenue Records согласился выпустить пластинку, но только с условием, что Wipers запишут всё заново в профессиональной студии. Альбом был перезаписан на 16-дорожечный магнитофон. Результатом стала довольно высококачественная запись, которая, однако, не совсем вмещалась в категории панк-рока того времени. В своём позднем интервью Сэйдж замечал: «Мы не были настоящей панк-группой… Мы не хотели, чтобы нас как-то классифицировали… Когда мы выпустили Is This Real?, он совершенно не подходил ни под какие стандарты панка, ни одна из наших записей не подходила. Теперь же девять, десять лет спустя люди говорят: «Да, это панк-классика 80-х»». В Is This Real? присутствует тот характерный стиль и звучание, которое будет отличать Wipers на протяжении всей её карьеры: «грязная», перегруженная гитара (через 10 лет такой саунд станет фирменным для гранжа); мелодии — не агрессивные, как у «обычных» панков, а полные тревоги, разочарования, апатии и отчаяния; тексты Сэйджа, не политизированные и «призывающие к действиям», а рассказывающие о социальной изоляции, смущении, фрустрации и непонимании (ещё одна «фишка» гранжа); и его великолепная игра на гитаре (позже Сэйджа даже стали называть «Джими Хендриксом от панк-рока»). К 1981 году Сэм Генри покинул группу и присоединился к портлендской команде Napalm Beach (не путать с Napalm Death). Дуг Коупал принял участие в студийных сессиях для пары новых песен, но через несколько недель он покинул группу, так как его семья переехала в Огайо. К Wipers присоединился Брэд Дэйвидсон (бас-гитара) и Брэд Нэйш (ударные). В таком составе и была завершена запись второго альбома Wipers — Youth Of America. Будучи неудовлетворённым опытом, полученным в профессиональной студии, Сэйдж решил записать и смикшировать весь материал сам, не прибегая к помощи профессиональных звукорежиссёров и продюсеров. Альбом получился коротким (всего полчаса), с замечательными гитарными пассажами Сэйджа — как, например, в тревожной When It’s Over или 10-минутной YOA (при том что тогдашние панки стремились писать очень короткие песни — иногда по полминуты). Альбом Over The Edge был записан в конце 1982 года в арендованном Сэйджом доме в юго-западной части Портленда на 8-дорожечный магнитофон (поэтому с «профессиональной» точки зрения альбом звучит «сырее», чем первые два, записанные на 16-дорожечный магнитофон) и был издан в 1983 году лейблом Restless. К середине 80-х гг. у Wipers уже была обширная фан-база в Европе (на своих европейских гастролях они собирали площадки по несколько тысяч человек), тогда как на родине они оставались практически неизвестными (хотя песни «Romeo» и «Over The Edge» некоторое время проигрывали в эфире портлендских городских радиостанций и колледж-радио). Записи Wipers издавались в Европе пиратским способом, без уведомления группы (Сэйдж отмечал, что никто из группы не получил и цента за альбом Is This Real?). В 1985 году Брэд Нэйш покинул группу, и его место занял Стив Плоуф. В том же году Грег Сэйдж выпустил свой первый сольный альбом Straight Ahead, а Wipers — свой первый «живой» альбом (Wipers). Чётвертый студийный альбом группы — Land Of The Lost вышел в 1986 году, за ним последовали депрессивный Follow Blind (1987) и The Circle (1989). В 1988 году к группе присоединился 18-летний барабанщик Трейвис МакНабб. Проработав с Wipers некоторое время, в основном, в качестве концертного музыканта, он покинул её и далее стал работать с Better Than Ezra, Шоном Маллинзом, Хоуи Деем и группой Beggars, члены которой в конце 90-х создали известную альтернативную команду Black Rebel Motorcycle Club. В 1989 году Сэйдж, заявив, что карьера Wipers прекращается, переехал в Феникс, штат Аризона, чтобы быть ближе к своей матери. Стив Плоуф также переехал в Аризону, а Дэйвидсон женился, перебрался в Лондон и там иногда играл вместе с известной нойз-поп-группой The Jesus & Mary Chain. В Фениксе Сэйдж создал звукозаписывающую студию и основал лейбл Zeno Records. В 1991 году он записал и издал свою вторую сольную пластинку Sacrifice (For Love). Между тем, с 1991 года альтернативный рок попал в мейнстрим. Многие альтер-рокеры в своих интервью стали высказывать восхищение Сэйджом и Wipers (такие команды, как Melvins, Dinosaur Jr. и Mudhoney называли Wipers в числе групп, повлиявших на их творчество). Среди них был и Курт Кобейн со своей «Нирваной», записавшей кавер-версии двух песен Wipers. Кобейн говорил о Wipers: «[Они] выпустили, может быть, четыре или пять альбомов. Первые два были абсолютной классикой и повлияли на Melvins и на другие панк-группы. Они были одной из групп, чьи приёмы я пытался копировать. Их песни были отличными. Грег Сэйдж был довольно романтичным, спокойным парнем, почти визионером. Что я ещё могу о них сказать? Они начали сиэтлский гранж-рок в Портленде, в 1977 году». Он упрашивал Сэйджа поехать с ним в турне и выступать в качестве разогревающего артиста, но Сэйдж отказался по неизвестной причине. В 1993 году появился альбом-трибьют Eight Songs For Greg Sage & The Wipers (позже вышел в расширенном варианте с шестью дополнительными треками под названием Fourteen Songs For Greg Sage & The Wipers), на котором песни Wipers перепели исполнители альтернативного рока — в числе их были такие артисты, как Nirvana, Hole, лидер Sonic Youth Торстон Мур и группа Cell, Poison Idea, Nation Of Ulysses и др. В том же году Сэйдж под вывеской Wipers выпустил трогательный и безысходный альбом Silver Sail, за которым последовали более «традиционные» для группы ажитированные The Herd (1996) и Power In One (1999). Последний концерт Wipers состоялся в 1997 году в Портленде. «Официально» группа перестала существовать в 2001 году. В этом году Сэйдж выпустил на своём лейбле Zeno Records бокс-сет Wipers из трёх дисков, содержащий первые три альбома группы плюс мини-альбом Alien Boy (1980) и бонус-треки, а в 2002 издал свой третий сольник — Electric Medicine. Скрыть...
Популярные аккорды Wipers:
алфавиту | просмотрам | случайно
  • E----------------------------------------------------------------------
    B----------------------------------------------------------------------
    G--9-9-9-9-9-9-9-9--7-7-7-7-7-7-7-7--7-7-7-7-7-7-7-7--9-9-9-9-9-9-9-9--
    D--9-9-9-9-9-9-9-9--7-7-7-7-7-7-7-7--7-7-7-7-7-7-7-7--9-9-9-9-9-9-9-9--
    A----------------------------------------------------------------------
    E----------------------------------------------------------------------
    
    E----------------------------------------------------------------------
    B----------------------------------------------------------------------
    G--9-9-9-9-9-9-9-9--7-7-7-7-7-7-7-7--7-7-7-7-7-7-7-7--9-9-9-9-9-9-9-9--
    D--9-9-9-9-9-9-9-9--7-7-7-7-7-7-7-7--7-7-7-7-7-7-7-7--9-9-9-9-9-9-9-9--
    A----------------------------------------------------------------------
    E----------------------------------------------------------------------
    
    E--------------------------------------------------------------------------------------
    B--------------------------------------------------------------------------------------
    G--9-9-9-9-9-9-9-9--7-7-7-7-7-7-7-7--12-12-12-12-12-12-12-12--11-11-11-11-11-11-11-11--
    D--9-9-9-9-9-9-9-9--7-7-7-7-7-7-7-7--12-12-12-12-12-12-12-12--11-11-11-11-11-11-11-11--
    A--------------------------------------------------------------------------------------
    E--------------------------------------------------------------------------------------
    
    E--------------------------------------------------------------------------------------
    B--------------------------------------------------------------------------------------
    G--9-9-9-9-9-9-9-9--7-7-7-7-7-7-7-7--12-12-12-12-12-12-12-12--11-11-11-11-11-11-11-11--
    D--9-9-9-9-9-9-9-9--7-7-7-7-7-7-7-7--12-12-12-12-12-12-12-12--11-11-11-11-11-11-11-11--
    A--------------------------------------------------------------------------------------
    E--------------------------------------------------------------------------------------
    
    E---------------------------------------------------------------------------------------------------
    B---------------------------------------------------------------------------------------------------
    G-12-12-12-12-12-12-12-12--11-11-11-11-11-11-11-11--12-12-12-12-12-12-12-12--11-11-11-11-11-11-11-11
    D-12-12-12-12-12-12-12-12--11-11-11-11-11-11-11-11--12-12-12-12-12-12-12-12--11-11-11-11-11-11-11-11
    A-10-10-10-10-10-10-10-10---9--9--9--9--9--9--9--9--10-10-10-10-10-10-10-10---9--9--9--9--9--9--9--9
    E---------------------------------------------------------------------------------------------------
    
    E---------------------------------------------------------------------------
    B---------------------------------------------------------------------------
    G--9-9-9-9-9-9-9-9------------------------------------11-11-11-11-11-11-11--
    D--9-9-9-9-9-9-9-9--7-7-7-7-7-7-7-7--9-9-9-9-9-9-9-9--11-11-11-11-11-11-11--
    A--7-7-7-7-7-7-7-7--7-7-7-7-7-7-7-7--9-9-9-9-9-9-9-9---9--9--9--9--9--9--9--
    E-------------------5-5-5-5-5-5-5-5--7-7-7-7-7-7-7-7------------------------
    
    E--------------------------------------------------------------------------------------
    B--------------------------------------------------------------------------------------
    G--12-X-X-11-X-X-12-X-X-11-X-X-12-12-12-12--12-X-X-11-X-X-9-X-X-14-X-X-14-14-14-14-14--
    D--12-X-X-11-X-X-12-X-X-11-X-X-12-12-12-12--12-X-X-11-X-X-9-X-X-14-X-X-14-14-14-14-14--
    A--10-X-X--9-X-X-10-X-X--9-X-X-10-10-10-10--10-X-X--9-X-X-7-X-X-12-X-X-12-12-12-12-12--
    E--------------------------------------------------------------------------------------
    
    E------------------------------------------------------------------------------------
    B------------------------------------------------------------------------------------
    G--14-X-X-11-X-X-12-X-X-9-X-X-11-11-11-11--11-X-X-----------------9-X-X-11-11-11-11--
    D--14-X-X-11-X-X-12-X-X-9-X-X-11-11-11-11--11-X-X-----------------9-X-X-11-11-11-11--
    A--12-X-X--9-X-X-10-X-X-7-X-X--9--9--9--9---9-X-X----7-X-X-9-X-X--7-X-X--9--9--9--9--
    E----------------------------------------------------5-X-X-7-X-X---------------------
    
    E---------------------------------------------------------------------------------
    B---------------------------------------------------------------------------------
    G--12-X-X-11-X-X-12-X-X-11-X-X-12-12-12-12--12-X-X-11-X-X-12-X-X-11--11-11-11-11--
    D--12-X-X-11-X-X-12-X-X-11-X-X-12-12-12-12--12-X-X-11-X-X-12-X-X-11--11-11-11-11--
    A--10-X-X--9-X-X-10-X-X--9-X-X-10-10-10-10--10-X-X--9-X-X-10-X-X--9---9--9--9--9--
    E---------------------------------------------------------------------------------
    
    E---------------------------------------------------------------------------------
    B---------------------------------------------------------------------------------
    G--12-X-X-11-X-X-12-X-X-11-X-X-12-12-12-12--12-X-X-11-X-X-12-X-X-11--11-11-11-11--
    D--12-X-X-11-X-X-12-X-X-11-X-X-12-12-12-12--12-X-X-11-X-X-12-X-X-11--11-11-11-11--
    A--10-X-X--9-X-X-10-X-X--9-X-X-10-10-10-10--10-X-X--9-X-X-10-X-X--9---9--9--9--9--
    E---------------------------------------------------------------------------------
    
    E-----------------------------------------------------10--11--12--11---13--14--15--14~~~--
    B------------------------------------12--13--14--13---------------------------------------
    G--11--12--13--12---14--15--16--15--------------------------------------------------------
    D-----------------------------------------------------------------------------------------
    A-----------------------------------------------------------------------------------------
    E-----------------------------------------------------------------------------------------
    
    E--12-13-12--10b-10-10b-10---12-13-12--10b-10-10b-10---12-13-12--10b-10-10b-10---
    B--12-13-12--10b-10-10b-10---12-13-12--10b-10-10b-10---12-13-12--10b-10-10b-10---
    G--------------------------------------------------------------------------------
    D--------------------------------------------------------------------------------
    A--------------------------------------------------------------------------------
    E--------------------------------------------------------------------------------
    
    E--12-13-12--10b-10-10b-10---12-13-12--10b-10-10b-10---12-13-12--10b-10-10b-10---
    B--12-13-12--10b-10-10b-10---12-13-12--10b-10-10b-10---12-13-12--10b-10-10b-10---
    G--------------------------------------------------------------------------------
    D--------------------------------------------------------------------------------
    A--------------------------------------------------------------------------------
    E--------------------------------------------------------------------------------
    
    E--12-13-12--10b-10-10b-10----------------------------------------14-14~~~--
    B--12-13-12--10b-10-10b-10-------------------10-12--12-14--14-15------------
    G------------------------------11-12--12-14---------------------------------
    D---------------------------------------------------------------------------
    A---------------------------------------------------------------------------
    E---------------------------------------------------------------------------
    
    E------------------------------------------------------------------------------
    B------------------------------------------------------------------------------
    G--11-12-11--9-7-9-7--11-12-11--9-7-9-7--11-12-11--9-7-9-7--11-12-11--9-7-9-7--
    D---X--X--X--X-X-X-X---X--X--X--X-X-X-X---X--X--X--X-X-X-X---X--X--X--X-X-X-X--
    A---9-10--9--7-5-7-5---9-10--9--7-5-7-5---9-10--9--7-5-7-5---9-10--9--7-5-7-5--
    E------------------------------------------------------------------------------
    
    E---------------------------------------------------------------------------------
    B---------------------------------------------------------------------------------
    G--12-X-X-11-X-X-12-X-X-11-X-X-12-12-12-12--12-X-X-11-X-X-12-X-X-11--11-11-11-11--
    D--12-X-X-11-X-X-12-X-X-11-X-X-12-12-12-12--12-X-X-11-X-X-12-X-X-11--11-11-11-11--
    A--10-X-X--9-X-X-10-X-X--9-X-X-10-10-10-10--10-X-X--9-X-X-10-X-X--9---9--9--9--9--
    E---------------------------------------------------------------------------------
    
    E---------------------------------------------------------------------------------
    B---------------------------------------------------------------------------------
    G--12-X-X-11-X-X-12-X-X-11-X-X-12-12-12-12--12-X-X-11-X-X-12-X-X-11--11-11-11-11--
    D--12-X-X-11-X-X-12-X-X-11-X-X-12-12-12-12--12-X-X-11-X-X-12-X-X-11--11-11-11-11--
    A--10-X-X--9-X-X-10-X-X--9-X-X-10-10-10-10--10-X-X--9-X-X-10-X-X--9---9--9--9--9--
    E---------------------------------------------------------------------------------
    
    E--------------------------------------------------------------------------------------
    B--------------------------------------------------------------------------------------
    G--12-X-X-11-X-X-12-X-X-11-X-X-12-12-12-12--12-X-X-11-X-X-9-X-X-14-X-X-14-14-14-14-14--
    D--12-X-X-11-X-X-12-X-X-11-X-X-12-12-12-12--12-X-X-11-X-X-9-X-X-14-X-X-14-14-14-14-14--
    A--10-X-X--9-X-X-10-X-X--9-X-X-10-10-10-10--10-X-X--9-X-X-7-X-X-12-X-X-12-12-12-12-12--
    E--------------------------------------------------------------------------------------
    
    E------------------------------------------------------------------------------------
    B------------------------------------------------------------------------------------
    G--14-X-X-11-X-X-12-X-X-9-X-X-11-11-11-11--11-X-X-----------------9-X-X-11-11-11-11--
    D--14-X-X-11-X-X-12-X-X-9-X-X-11-11-11-11--11-X-X-----------------9-X-X-11-11-11-11--
    A--12-X-X--9-X-X-10-X-X-7-X-X--9--9--9--9---9-X-X----7-X-X-9-X-X--7-X-X--9--9--9--9--
    E----------------------------------------------------5-X-X-7-X-X---------------------
    
    E---------------------------------------------------------------------------------
    B---------------------------------------------------------------------------------
    G--12-X-X-11-X-X-12-X-X-11-X-X-12-12-12-12--12-X-X-11-X-X-12-X-X-11--11-11-11-11--
    D--12-X-X-11-X-X-12-X-X-11-X-X-12-12-12-12--12-X-X-11-X-X-12-X-X-11--11-11-11-11--
    A--10-X-X--9-X-X-10-X-X--9-X-X-10-10-10-10--10-X-X--9-X-X-10-X-X--9---9--9--9--9--
    E---------------------------------------------------------------------------------
    
    E---------------------------------------------------------------------------------
    B---------------------------------------------------------------------------------
    G--12-X-X-11-X-X-12-X-X-11-X-X-12-12-12-12--12-X-X-11-X-X-12-X-X-11--11-11-11-11--
    D--12-X-X-11-X-X-12-X-X-11-X-X-12-12-12-12--12-X-X-11-X-X-12-X-X-11--11-11-11-11--
    A--10-X-X--9-X-X-10-X-X--9-X-X-10-10-10-10--10-X-X--9-X-X-10-X-X--9---9--9--9--9--
    E---------------------------------------------------------------------------------
    
    E-----------------------------------------------------10--11--12--11---13--14--15--14~~~--
    B------------------------------------12--13--14--13---------------------------------------
    G--11--12--13--12---14--15--16--15--------------------------------------------------------
    D-----------------------------------------------------------------------------------------
    A-----------------------------------------------------------------------------------------
    E-----------------------------------------------------------------------------------------
    
    E--12-13-12--10b-10-10b-10---12-13-12--10b-10-10b-10---12-13-12--10b-10-10b-10---
    B--12-13-12--10b-10-10b-10---12-13-12--10b-10-10b-10---12-13-12--10b-10-10b-10---
    G--------------------------------------------------------------------------------
    D--------------------------------------------------------------------------------
    A--------------------------------------------------------------------------------
    E--------------------------------------------------------------------------------
    
    E--12-13-12--10b-10-10b-10---10~~~~~~~~~~--
    B--12-13-12--10b-10-10b-10-----------------
    G------------------------------------------
    D------------------------------------------
    A------------------------------------------
    E------------------------------------------
    
    (3:11)
    BASS:
    G-----------------------------------------------------------------------
    D------4-------4--------5-------5--------6-------6--------7-------7-----
    A-----------------------------------------------------------------------
    E--2-2--2--2-2--2---3-3--3--3-3--3---4-4--4--4-4--4---5-5--5--5-5--5----
    
    PIANO:
    E-------------------------------------------------------------------10--
    B----------------------------------------------------------------13-----
    G-------------------------------------------------------------14--------
    D-----------------------------------------------------------------------
    A-----------------------------------------------------------------------
    E--2----------------3----------------4----------------5-----------------
    
    GUITAR:
    E-------------------------------------------------------------------10--
    B----------------------------------------------------------------13-----
    G-------------------------------------------------------------14--------
    D-----------------------------------------------------------------------
    A-----------------------------------------------------------------------
    E-----------------------------------------------------------------------
    
    E-------------------------------------------------------------------10--
    B----------------------------------------------------------------13-----
    G-------------------------------------------------------------14--------
    D-----------------------------------------------------------------------
    A-----------------------------------------------------------------------
    E-----------------------------------------------------------------------
    
    
    E-------------------------------------------------------------------10--
    B----------------------------------------------------------------13-----
    G-------------------------------------------------------------14--------
    D-----------------------------------------------------------------------
    A-----------------------------------------------------------------------
    E-----------------------------------------------------------------------
    Land…
  • E--8--8-8--3--3-3--5-5-5-5-
    B--8--8-8--3--3-3--5-5-5-5-
    G--5--5-5--0--0-0--2-2-2-2-
    D--------------------------
    A--------------------------
    E--------------------------
    
                                               X3
    E--------------------------|-----------------
    B--------------------------|-----------------
    G--5--5-5------------------|-----------------
    D--5--5-5--5--5-5--7-7-7-7-|-7-7-7-7-7-7-7-7-
    A--3--3-3--5--5-5--7-7-7-7-|-7-7-7-7-7-7-7-7-
    E----------3--3-3--5-5-5-5-|-5-7-5-7-5-7-5-7-
    
    C…
  • (Intro)
    E----------------------------------
    B--(15)~~~~~~~---------------------
    G----------------------------------
    D--0-0-5-0-3-0-0-3-0-5-0--0-3-0-0--
    A--0-0-5-0-3-0-0-3-0-5-0--0-3-0-0--
    E----------------------------------
    
    (Verse)
    E-------------------------------------------------------------------------------
    B-----------------------------7--5--7---7---------------------------7--5--7---7-
    G-----------------------------7--5--7---7---------------------------7--5--7---7-
    D--0-0-5-0-3-0--0-5-0-3-0-----7--5--7---7--0-5-0-3-0--0-5-0-3-0-----7--5--7---7-
    A--0-0-5-0-3-0--0-5-0-3-0-----5--3--5---5--0-5-0-3-0--0-5-0-3-0-----5--3--5---5-
    E-------------------------------------------------------------------------------
    Get…
  • Intro:
    E----------------------------------
    B----------------------------------
    G------12-------14-----10-----109-
    D------12-------14-----10-----109-
    A--10--10---12--12--8---8--8---8-7-
    E--10-------12------8------8-------
    
    Verse:
    E------------------------------------------------------------------------
    B--------------------------------------6-6-6-6-6-6-6-6-6-6-6-6-6-6-6-6-6-
    G--------------------------------------6-6-6-6-6-6-6-6-6-6-6-6-6-6-6-6-6-
    D--5-5-5-5--5-5-5-5--7-7-7-7--7-7-7-7--6-6-6-6-6-6-6-6-6-6-6-6-6-6-6-6-6-
    A--5-5-5-5--5-5-5-5--7-7-7-7--7-7-7-7--8-8-8-8-8-8-8-8-8-8-8-8-8-8-8-8-8-
    E--3-3-3-3--3-3-3-3--5-5-5-5--5-5-5-5--8-8-8-8-8-8-8-8-8-8-8-8-8-8-8-8-8-
    
    Bridge:
    E-------------------------------------
    B-------------------------------------
    G--5-5-5-5--4-4-4-4-------------------
    D--5-5-5-5--4-4-4-4--3-3-3-3--2-2-2-2-
    A--3-3-3-3--2-2-2-2--3-3-3-3--2-2-2-2-
    E--------------------1-1-1-1--0-0-0-0-
    
    I…
  • (Intro, also main bass riff)
    E--------------------------------------
    B--------------------------------------
    G--------------------------------------
    D--------------------------------------
    A--0--0-0--3--0----0---0-0-0------3-5--
    E----------------3------------3-5------
    
    E---------------------------------------
    B---------------------------------------
    G-----------5----------------------5-7--
    D--7--7-7---5---7-5-7--7-7-7--5-7--5-7--
    A--7--7-7-------7-5-7--7-7-7--5-7-------
    E---------------------------------------
    
    Silver…
  • (Intro)
    E--------------------------------
    B--7-7-7-7--7-7-7-7--7-7-7-7--7--
    G--7-7-7-7--7-7-7-7--7-7-7-7--7--
    D--7-7-7-7--7-7-7-7--7-7-7-7--7--
    A--5-5-5-5--5-5-5-5--5-5-5-5--5--
    E--------------------------------
    
    (1st part…
  • Intro:
    E------------------------------------------------------------------------------
    B------------------------------------------------------------------------------
    G------------------------------------------------------------------------------
    D--5-5-5-5--5-5-5-5--5-5-5---8-8-8-8---3-3-3-3---10-10-10-10---3-3-3-3--3-3-3--
    A--5-5-5-5--5-5-5-5--5-5-5---8-8-8-8---3-3-3-3---10-10-10-10---3-3-3-3--3-3-3--
    E--3-3-3-3--3-3-3-3--3-3-3---6-6-6-6---1-1-1-1----8--8--8--8---1-1-1-1--1-1-1--
    
    Verse:
    E------------------------------------------
    B------------------------------------------
    G------------------------------------------
    D--5-5-5-5---5-5-5-5---5-5-5-5---5-5-5-5---
    A--5-5-5-5---5-5-5-5---5-5-5-5---5-5-5-5---
    E--3-3-3-3---3-3-3-3---3-3-3-3---3-3-3-3---…
  • G
    What keeps the world on spinning?
    E
    What keeps the stars in the sky?
    G                    E
    What is reaction without no reason?
    
    G
    What is this thing...
    E
    Human being...
    G
    What is this thing...
    E
    Human being...
    G
    What…
  • Pt. 1
    E-------------------------------
    B-------------------------------
    G-------------------------------
    D---------2---------------0-----
    A-----2---2-----------3---3-----
    E--0------0---0---1-------1-----
    
    Pt. 2
    E-------------------------
    B-------------------------
    G-------------------------
    D-------7-------------8---
    A----7--7---------8---8---
    E--5----5----5/6------6---
    
    (w/Pt.…
  • Bass Intro:
    G-|--------------------|
    D-|o------------------o|
    A-|o------------------o|
    E-|---2--0-2-3-3-3-0---|
    
    E-----------
    B-----------
    G--11-11-11-
    D--11-11-11-
    A---9--9--9-
    E-----------
    It's such a long way down
    
    E--------
    B--------
    G--------
    D--2-2-2-
    A--2-2-2-
    E--0-0-0-
    Maybe…
  • Bass Intro:
    G------------------------------------
    D------------------------------------
    A--0-0----0-0-3--0-0-0-0-0-0-3-0-----
    E------3-------------------------3-4-
    
    It's got to be up front
    Got to be so close to touch
    It's…
  • Intro Riff: (4x)
    E-----------------------
    B-----------------------
    G-------3-3-------------
    D--5-5--3-3--5-5-3-3----
    A--5-5-------5-5-3-3----
    E-----------------------
    
    Verse:
    E-------------------------
    B--14----17---14----12-12-
    G--14----17---14----12-12-
    D--14----17---14----12-12-
    A--12----15---12----10-10-
    E-------------------------
    
    Bridge:…
  • (Verse)
    E--------------------------------------
    B--------------------------------------
    G--------------------------------------
    D--7-------7-------7----5---------5----
    A--7-------7-------7----5----7----5----
    E----------------------------7---------
    
    (Chorus)
    E--------------------------------------------------------------------
    B--------------------------------------------------------------------
    G--5-----------------------------------------------------------------
    D--5------------7-----------------7-------7-------7----5--------5----
    A--3------------7-----------------7-------7-------7----5---7----5----
    E---------------5------------------------------------------7---------…
  • Intro:
    E--------------------------------------------------------------------------
    B--------------------------------------------------------------------------
    G--12-12-12-12-12-12-12-12-11-11-11-11-11-11-11-11-14-14-14-14-14-14-14-14-
    D--------------------------------------------------------------------------
    A--------------------------------------------------------------------------
    E--------------------------------------------------------------------------…
  • Intro: (repeat over and over until Pt. 2)
    E------------------------------------
    B------------------------------------
    G------------------------------------
    D------------------------------------
    A--9-10-9-7-7-9-9-9-9-9-9-9-7-9-9-9--
    E--0--0-0-0-0-0-0-0-0-0-0-0-0-0-0-0--
    
    Pt.…
  • Riff A:                                                                     2x
    E----------------------------------------------------------------------------
    B----------------------------------------------------------------------------
    G----------------------------------------------------------------------------
    D--2---4--2-2---4--2-2---4--2-2---4--2-2--4--2-2---4--2-2---4--2-2---4--2-2--
    A--2---4--2-2---4--2-2---4--2-2---4--2-2--4--2-2---4--2-2---4--2-2---4--2-2--
    E--0---0--0-0---0--0-0---0--0-0---0--0-0--0--0-0---0--0-0---0--0-0---0--0-0--
    
    Riff…
  • E-------------------------------------------------
    B-------------------------------------------------
    G-----------5--5-5--------------------------------
    D--7--7-7---5--5-5-------5-5-------5-------5--6---
    A--7--7-7------------7---5-5---7---5---7---5--6---
    E--------------------7---------7-------7----------
    
    E-----------------------------------------
    B-----------------------------------------
    G-----------5-5-5-5----------------5---4--
    D--7--7-7---5-5-5-5------5-5-------5---4--
    A--7--7-7------------7---5-5---7---3---2--
    E--------------------7---------7----------
    
    Chorus…
  • Intro: (Gtr. 1)
    E F# G
    E F# G
    
    Gtr 2:
    E--------------------------------------------------
    B------------------2-3-2-0-0~~---------2---3---2---
    G--------------------------------------------------
    D--------------------------------------------------
    A--------------------------------------------------
    E--------------------------------------------------
    
    E--------------------------------------------------
    B------------------2-3-2-0-0~~---------------------
    G--------------------------------------------------
    D--------------------------------------54---------
    A-------------------------------------------5/7----
    E---------------------------------------------0----
    
    Verse:
    E…
  • Intro:
    E---------------------------------------------------------------
    B---------------------------------------------------------------
    G---------------------------------------------------------------
    D--x-x---x--x---9-8----7-6-5----3-0---------9-8----7-6-5--------
    A--x-x---x--x---9-8----7-6-5----3-0--5-3----9-8----7-6-5---X-X--
    E------------------------------------5-3-------------------X-X--
    
    E---------------------------------------|
    B---------------------------------------|
    G--9--9--9----7---7-7---9-9---7---7-7---|
    D--9--9--9----7---7-7---9-9---7---7-7---|
    A--7--7--7----5---5-5---7-7---5---5-5---|
    E---------------------------------------|
    
    Riff…
  • E--0------------0---0--
    B--0------------0---0--
    G--8------------8---9--
    D--9------------9--10--
    A--0------------0---0--
    E--0------------0---0--
       ^            ^   ^
    
             
    E-------//-|---0--
    B------//--|---0--
    G-----//---|---9--
    D----//----|--10--
    A--X//-----|---0--
    E--X/------|---0--
    
    E--0--0-0-0-0---0---0--0--0--0---0---|---0--
    B--0--0-0-0-0---0---0--0--0--0---0---|---0--
    G--8--8-8-8-8---9---9--9--9--9---9~~~|---9--
    D--9--9-9-9-9--10--10-10-10-10--10~~~|--10--
    A--0--0-0-0-0---0---0--0--0--0---0---|---0--
    E--0--0-0-0-0---0---0--0--0--0---0---|---0--
    
    E--0--0-0-0-0---0---0--0--0--0---0---
    B--0--0-0-0-0---0---0--0--0--0---0---
    G--8--8-8-8-8---9---9--9--9--9---9~~~
    D--9--9-9-9-9--10--10-10-10-10--10~~~
    A--0--0-0-0-0---0---0--0--0--0---0---
    E--0--0-0-0-0---0---0--0--0--0---0---
    
    E--0--0-0-0-0---0---0--0--0--0---0---0---0--0--0--0---0---0---0--0--0--0---0-
    B--0--0-0-0-0---0---0--0--0--0---0---0---0--0--0--0---0---0---0--0--0--0---0-
    G--8--8-8-8-8---9---9--9--9--9---9--11--11-11-11-11--11--14--14-14-14-14--14-
    D--9--9-9-9-9--10--10-10-10-10--10--12--12-12-12-12--12--15--15-15-15-15--15-
    A--0--0-0-0-0---0---0--0--0--0---0---0---0--0--0--0---0---0---0--0--0--0---0-
    E--0--0-0-0-0---0---0--0--0--0---0---0---0--0--0--0---0---0---0--0--0--0---0-
    
    E---------------------------------------------------17^-
    B---------------13-15-15^-15-13----13-15^-14----13------
    G--12-14-14-14~~----------------14-----------12---------
    D-------------------------------------------------------
    A-------------------------------------------------------
    E-------------------------------------------------------…
  • Intro and Interlude:
    E--------------------------------------------------------------------
    B----------------------------------------------------5-5-5-5-5-5-5-5-
    G----------------------------------------------------6-7-6-7-6-7-6-7-
    D--2-2-4-4-5-5-6-6-7-7-7-7-7-7-7-7-7-7-7-7-7-7-7-7---7-7-7-7-7-7-7-7-
    A--2-2-4-4-5-5-6-6-7-7-7-7-7-7-7-7-7-7-7-7-7-7-7-7-------------------
    E--------------------------------------------------------------------
    
    Verse:
    E------------------------------------------------------------------
    B--/12---------------------------------------------5-5-5-5-5-5-5-5-
    G--/13---------------------------------------------6-7-6-7-6-7-6-7-
    D--/14---------------------------------------------7-7-7-7-7-7-7-7-
    A------------------------------------------------------------------
    E------------------------------------------------------------------
    Stuck…
  • Intro:
    G E
    G E
    C A
    B G
    
    Riff A:
    E----------------------------------
    B----------------------------------
    G--14-12----12-----14-12----12-----
    D--------14----14--------14----14--
    A----------------------------------
    E----------------------------------
    G…
  • Bass:
    G------------------------------------------------------------------------
    D------------------------------------------------------------------------
    A-------------------7-7-7-7--7-7-7-7--5-5-5-5--5-5-5-5--7-7-5-5-2-2-0-0--
    E--0-0-0-0--0-0-0-0------------------------------------------------------…
  • Intro (2x):
    E--4-4--------------4---5---4-4-
    B--5-5--------------5---5---5-5-
    G--4-4--------------4---4---4-4-
    D-------------------------------
    A-------------------------------
    E------0-0-0-0-0-0----0---0-----
    
    Verse:
    G…
  • Intro: (2x)
    E--12-12-12-12-12-12-12-12-12-12-12-12-12-12-12-12------------------
    B--12-12-12-12-12-12-12-12-12-12-12-12-12-12-12-12------------------
    G--12-12-12-12-12-12-12-12-12-12-12-12-12-12-12-12------------------
    D-------------------------------------------------------------------
    A-------------------------------------------------------------------
    E-----------------------------------------------------0-2-3-5-5-3-2-
    
    Verse…
  • Intro:
    E------------------------------------------------------------------
    B------------------------------------------------------------------
    G--5-5-5-5-4-4-4-4-0-0-0-0-----------------------------------------
    D--------------------------2-2-2-2---------------------------------
    A----------------------------------3-3-3-3-2-2-2-2-----------------
    E--------------------------------------------------3-3-3-3-0-0-0-0-
    
    Verse:
    E…
  • Bass:
    G------------------
    D------------------
    A------2-2-0-0-----
    E--0-0---------3-3-
    
    Guitar: Run through different fills
    E--14-14-14-14-14-14-14-14-14-14-14-14-17-17-17-17-17-17-17-17-17-17-17-17-
    B--14-14-14-14-14-14-14-14-14-14-14-14-17-17-17-17-17-17-17-17-17-17-17-17-
    G--11-11-11-11-11-11-11-11-11-11-11-11-14-14-14-14-14-14-14-14-14-14-14-14-
    D--------------------------------------------------------------------------
    A--------------------------------------------------------------------------
    E--------------------------------------------------------------------------
    
    E---------------------------
    B---------------------------
    G--12--12-11~~~--11--11/12--
    D---------------------------
    A---------------------------
    E---------------------------…
Наверх