Аккорды «Wolfgang»

Wolfgang
Wolfgang - группа, смешивающая хэви-метал, хард-рок и гранж, которая была сформирована в 1992 году в столице Филиппин, Маниле. Она является одной из самых популярных групп своей родины, с мульти-платиной там. Басти Артади (Себастьян Артади, вокалист), Вульф Гемора (Лесли Гемора, барабанщик) и Мануэль Легарда (гитарист, который провел время в Испании и вернулся в Филиппины), вдохновлялись после работы местными группами, ходя на концерты. Вскоре трио собирается вместе и называют себя «Wolfpack»,… Читать полностью... Wolfgang - группа, смешивающая хэви-метал, хард-рок и гранж, которая была сформирована в 1992 году в столице Филиппин, Маниле. Она является одной из самых популярных групп своей родины, с мульти-платиной там. Басти Артади (Себастьян Артади, вокалист), Вульф Гемора (Лесли Гемора, барабанщик) и Мануэль Легарда (гитарист, который провел время в Испании и вернулся в Филиппины), вдохновлялись после работы местными группами, ходя на концерты. Вскоре трио собирается вместе и называют себя «Wolfpack», что не долго и вскоре название было заменено на Wolfgang. Испытывая влияния, начиная от тяжелых трешеров Metallica и Sepultura, через гранжеров Pearl Jam и Soundgarden, доходя до хард-рокеров 70-х Black Sabbath и Led Zeppelin, группа вскоре начал играть концерты в Маниле и в других местах. В то время басист Мон Легаспи (родился Рамон Легаспи) присоединился к группе на постоянной основе. Ранний прорыв произошел, когда они играли в филиппинском телешоу «RJ Junior Jam». После этого выступления группа имеет две демо-песни. Вскоре группа подписала контракт с Def Tone, дочерней компанией Ivory Records, и выпустила свой первый альбом Wolfgang в 1995 году. Альбом был очень успешным, достигнув платинового статуса менее чем за год. После нескольких туров по Филиппинам, группа подписала контракт с другим лейблом, Epic Philippines, дочерней компанией Sony BMG и выпустила свой ​​второй альбом Semenelin для нее в 1996 году. Semenelin породил сингл «Weightless», который дал группе ещё больший успех, сделав её одной из самых успешных филиппинских групп. Альбом стал дважды платиновым, плюс несколько наград на NU107 Rock Awards в этом же году, в том числе за «Лучший альбом года». Вскоре группа получила большой тур на Филиппинах и другой тур в США в следующем году в поддержку альбома. В том же году, 1997, группа выпустила свой ​​третий альбом (второй для Epic Philippines) Wurm. Продажи были ниже, чем Semenelin, но он считается одним из лучших альбомов поклонниками группы. Как это было с Semenelin, альбом был номинирован как «Лучший альбом года» на NU107 Rock Awards и члены группы получили множество наград. Группа гастролировала в Японии, потому что альбом был также выпущен там в 1998 году, а потом давала шоу на Филиппинах. На альбоме In Silence звук имеет свойство быть более доступным, в отличие от экспериментов Wurm. Этот альбом также считается самым известным альбомом группы на Филиппинах, несмотря на то, что не был выпущен в Японии или США. Альбом породил одну единственную сильную песню - Atomica. In Silence получил награду за «Лучший альбом года» на NU107 Rock Awards и все четыре члена получили награды в своих собственных категориях. Альбом также был номинирован на «Лучшую запись» и группа также была номинирована на «Выбор слушателя». Группа начинает новый тур, и одно из шоу этого тура было записано как первый концертный альбом от группы, Acoustica. В 2001 году группа закончила свое турне, вернулась в студию и выпускает свой последний альбом с Epic Philippines под названием Black Mantra. Двойной альбом, содержащий студийные песни на первом CD, и живых версий песен на втором компакт-диске. Альбом включает в себя агрессивный звук, что было сделано в Semenelin, с еще более взрывоопасной начинкой. Альбом породил три сингла (которые пошли на саундтрек из филиппинской версии игры Final Fantasy). Альбом был снова хорошо принят, но группа распалась в 2002 году. Тем не менее в 2007 году группа возвращается. В новом составе барабанщика Вульфа Геморы больше нет, он уступил свое место Фрэнсису Акино. Вскоре группа возвращается на сцену в том же году и начинает работу над новым альбомом через системы электронной почты (четыре члена делились своими идеями по электронной почте). А потом, после шести лет перерыва, группа выпустила Villains в 2008 году на собственном лейбле Semenelin Music. Звук Villains продолжает саунд агрессивностью и веса, достигнутого в Black Mantra. Сингл RP Deathsquad, несмотря на то, был выпущен до альбома, вызвал большой успех в филиппинских землях. Несмотря на шоу, группа издает новую музыку только в 2012, новый сингл Sandata был выпущен в это время. Вскоре первый EP в карьере группы был выпущен в том же году и считается первым произведением, полностью состоящем на тагальском, языке филиппинцев (в палитре предыдущего альбома содержатся песни на английском и тагальском.) Скрыть...
Популярные аккорды Wolfgang:
алфавиту | просмотрам | случайно
  • INTRO
    Eb|--------------(12)-10------------------------------(12)--|
    Bb|----------(12)--------(12)----------------(12)-(10)------|
    Gb|-----(12)-(12)------------(12)--------(12)(12)-----------|
    Db|--12--------------------------(12)-12--------------------|
    Ab|--10-------------------------------10--------------------|
    Eb|---------------------------------------------------------|
    
    Eb|---------------(12)-10
    Bb|----------(12)---------(12)-----------------(9)-(5)-(7)--|
    Gb|-----(12)-(12)-------------(12)--------(12)-(9)-(5)-(7)--|
    Db|--12---------------------------(12)-12-------------------|
    Ab|--10--------------------------------10-------------------|
    Eb|---------------------------------------------------------|
    
    Eb|----------------------79-9p8-------------------------810-1012-12--|
    Bb|------------------78---------11-9---------------9-11----------------|
    Gb|--7h9P7---9p7-79------------------------9-10-12---------------------|
    Db|--9-----9--------------------------1012-----------------------------|
    Ab|---------------------------------------------------------------------|
    Eb|---------------------------------------------------------------------|
    
    Eb|--------10-12-10-----------------------------------------------------|
    Bb|--12-13----------13-12-12h13p12--------------------------------------|
    Gb|--------------------------------(12)---------------------------------|
    Db|--------------------------------(12)--12h14--------------------------|
    Ab|--------------------------------------------15-14-12----12-----------|
    Eb|-----------------------------------------------------15--------------|
    
    STANZA
    Eb|-------------------|
    Bb|-------------------|
    Gb|-------------------|
    Db|------0---3-----0--|
    Ab|----4---1-----3----|
    Eb|--3---------1------|…
  • TUNED:Eb
    
    INTROSTANZA
    Eb|----------------------------------------|
    Bb|----------------------------------------|
    Gb|----------------------------------------|
    Db|-------------9------------------7-------|
    Ab|--5SL7-------7-------7-----5-7---7-5---|
    Eb|--3SL5--5-5-----0-0--5--7--------------|…
  • Intro/stanza:
    Eb|------------------------------------------------------|
    Bb|------------------------------------------------------|
    Gb|------------------------------------------------------|
    Db|------------------------------------------------------|
    Ab|--------9-9-9-8-8-8-9-9-912-12-12-9-9-9-8-8-8-9-9-9--|
    Eb|--7-7-7-----------------------------------------------|
    
    Eb|------------------------------------------------------|
    Bb|------------------------------------------------------|
    Gb|------------------------------------------------------|
    Db|------------------------------------------------------|
    Ab|--------9-9-9-8-8-8-9-9-9-----------------------------|
    Eb|--7-7-7-------------------10-10-10-12-12-8-8-8-8-8-8--|
    
    refrain:
    Eb|------------------------------------------------------|
    Bb|------------------------------------------------------|
    Gb|------------------------------------------------------|
    Db|------9--------2--------9-----------------------------|
    Ab|----9---9---5----3----9---9---------------------------|
    Eb|--7-------3---------7---------------------------------|
    
    Eb|------------------------------------------------------|
    Bb|------------------------------------------------------|
    Gb|------------------------------------------------------|
    Db|---------------2-----------9-------3-------9----------|
    Ab|--------3-5-6----5-3-2---9---9---5---5---9---9--------|
    Eb|--3-4-6----------------7-------3-------7--------------|
    
    Eb|------------------------------------------------------|
    Bb|------------------------------------------------------|
    Gb|------------------------------------------------------|
    Db|--------------------2---------------------------------|
    Ab|------2-5-4-2-2-4-5---5-2-----------------------------|
    Eb|--3-5-------------------------------------------------|
    
    bought…
  • INTRO:
    E|--------------------------------------7-----------3-6^8--|
    B|--24--7^9--7-5--5/3--24--4--24-7--4-7^9-7-35---------|
    G|--35-------6-4--4/2--35--5--35-8--5-------------------|
    
    E|--6-5-3--------------------------------------------------|
    B|--------3-3h5------3--3h5p3---3--4-2-4------6^8-6-5h6-6/-|
    G|---------------4-4----------5----5-3-5--3-5--------------|
    
    E|----------------9p7-7---------------------------------------------------|
    B|------7h9p7-7---------10p9p7--------------------------------------------|
    G|--7h9---------9--------------10p9p7-------------7-----7-----------------|
    D|------------------------------------12p9--79-9---79---7-9-7-9-9-7-9--|
    
    STANZA:B-G-A-Em
    G|----------------0-|…
  • Tune guitar 1/2 step lower
    
    intro/stanza:
    Eb|----------0--------||------0-----------|
    Bb|----5---2---2------||------1-----------|
    Gb|--5---0-0----------||------0-----------|
    Db|--5-----0-----0----||----2-------------|
    Ab|--3-------------0--||--3---------------|
    Eb|-------------------||---------3-3-2-0--|
    
    finalle:(final…
  • Tune:Eb Bb Gb Db Ab Eb
    
    intro:
    Eb|-----19-------19----------------19---------|
    Bb|--19----20-19----17----19-20-19----17------|
    Gb|--------------------19---------------------|
    Db|-------------------------------------------|
    Ab|-------------------------------------------|
    Eb|-------------------------------------------|
    
    stanza:
    Eb|------------------------------------------------------------------
    Bb|------------------------------------------------------------------
    Gb|------------------------------------------------------------------
    Db|-------------------------------------------------------------0----
    Ab|-------0--4-----4------0h4-----4-----0h4-------4------0h4-3---4--
    Eb|---0-0-0--2-2-2-2--0-0-0h2-2-2-2-0-0-0h2--2-2--2--0-0-0h2--------…
  • INTRO: GUITAR PARTS - NATURAL HARMONICS
    
    e|------------------------------------------------------| 
    b|------------------------------------------------------| 
    g|---12--7-12-12--12--7-12-12--12--7-12-12--12--7-12-12-| 
    D|-12--12-------12--12-------12--12-------12--12--------|…
  • Intro : Meters is in 6/4 times
    Rhythm Fig.1
    
    |--------------------------|--------------------------|
    |--------------------------|--------------------------|
    |--------------------------|--------------------------|
    |-------------2-2-----5-5--|-------------2-2-----5-5--|
    |--4-4---4-4--0-0--5--3-3--|--4-4---4-4--0-0--5--3-3--|
    |--2-2-0-2-2-------3-------|--2-2-0-2-2-------3-------|
    pm…
  • Tune guitar Eb Bb Gb Db Ab Eb
    
    Intro/stanza:G-Bb
    Eb|--------------3----|
    Bb|--------------3----|
    Gb|--------------4----|
    Db|--5-5/8-5-8-5---8--|
    Ab|--5-5/8-5-8-5---8--|
    Eb|--3-3/6-3-6-3---6--|
    
    refrain:
    Eb|-------------------||--3---6-----------------------|
    Bb|-------------------||--3---6------8-8p7p5----------|
    Gb|----------7-5-5-4--||--4---7--7^9---------8p7p5----|
    Db|--6-5-5-5-7-5-5-4--||--5-8----------------------5--|
    Ab|--6-5-5-5-5-3-3-2--||--5-8-------------------------|
    Eb|--4-3-3-3-0-0-0-0--||--3-6-------------------------|
    
    Bridge:
    Eb|---------------------------------|
    Bb|---------------------------------|
    Gb|---------------------------------|
    Db|--3~~-5~-3~-3-3-3-3-3-3x-…
  • INTROSTANZA
    Eb|------2------------------|
    Bb|----2---2----------------|
    Gb|--0-------0---0---0------|
    Db|--0---------3---2--------|
    Ab|--2-----------------0/2--|
    Eb|--3-----------------0/3--|
    
    refrain…
  • INTRO:(repeat 8x)
    Eb|-------------------------------|
    Bb|-------------------------------|
    Gb|-------9------9----9--8^9------|
    Db|--------------------------9----|
    Ab|-----7---7-7---7-7-------------|
    Eb|--7---------------------------|…
  • Tune 1/2 step lower
    
    intro:
    Eb|-------35-    ------------3/5--    --|
    Bb|-------57-    ------------5/7--    --|
    Gb|--611-57-(3x)--11/611---5/7--    --|
    Db|--711-57-    --11/711---5/7--(3x)--|
    Ab|--79--35-    ---9/79----3/5--…
  • LEGEND:(maybe this will help you on the other tabs)
     or ( )- natural os artificial harmonics
     . - palm mute
    ^ or B - bent
    / - slide up
     - slide down
    v or vb - vibrato
    r - Rrelease bend
    p - pull off
    h - hammer on
    t - right…
  • Tuning:half-step down
    
    Intro/verse
    eb|-----------------------------------------|
    Bb|---3---3----4---4----3---3------3-----1--|
    Gb|-----0--------0--------0------0-----0----|
    Db|-----------------------------------------|
    Ab|----------6-----------------2-----3------|
    Eb|-3-----------------3---------------------|
    
    Bridge
    eb|------------|
    Bb|-3/6-6-63--|
    Gb|------------|
    Db|------------|
    Ab|------------|
    Eb|-3/6----3--|
    
    Riff…
  • INTRO
    Eb|-------------------------------|
    Bb|-------------------------------|
    Gb|-----------------------4-7-----|
    Db|--2-4-5--2-4-5--2-4-5--4-7-7---|
    Ab|--2-4-5--2-4-5--2-4-5--2-5-4---|
    Eb|--0-2-2--0-2-2--0-2-2----------|
    
    VERSES
    Eb|--------------------------------||-------------------------|
    Bb|--------------------------------||-------------------------|
    Gb|----------3-------2-----0-------||----------3-------2------|
    Db|------4-----4---4---4-----4---4-||------4-----4---4---4----|
    Ab|----4---4-----4-------4-----4---||----4---3-----4-------4--|
    Eb|--2-----------------------------||--0----------------------|
    
    CHORUS
    Eb|----------3------3----------||----------0-----0------------|
    Bb|------3-----3------3---3----||------2-----2-----2---2------|
    Gb|----0---0-----0------3------||--------0-----0-----0--------|
    Db|----------------------------||----2------------------------|
    Ab|----------------------------||-----------------------------|
    Eb|--3-------------------------||--2--------------------------|
    
    CHORUS…
  • 0:01
                                       
          eb|------------------------------------------------------------|
          bb|------------------------------------------------------------|
          gb|----------12-11-x-------------------------------------------|…
  • INTRO:
    
          1:21-1:34
    
            P.M...........      P.M...........      P.M...........      
        P.M........... 
        eb|-------------------|-------------------|-------------------|-------------------|
        bb|-------------------|-------------------|-------------------|-------------------|…
  • INTRO:
    Db|--------------------------|
    Ab|--2-2-2-2-2-2-2-2--2-4-6--|
    Eb|--------------------------|
        . . . . . . . .
    
    STANZA
    Db|---------------------------|
    Ab|--2-2-2-2-2-2-2-2-6p4-4-6--|
    Eb|---------------------------|
    
    CHORUS
    Db|------------||--------5---57--||-------------------|
    Ab|--5-57--7--||------3---3-35--||--------5---5p3----|
    Eb|--3-35--5--||--13------------||--13-3---3-----5--|
    
    THE…
  • INTRO/STANZA:G-D-E(4X)
    REFRAIN:A-G-E
    CHORUS:G-D
                                                  (HARMONICS)
    E|--------------------------------------------||-------|
    B|------2h4-4-4-4-4-4-4--2h4------------------||-------|
    G|--1h3-----------------------1^3-1^3----1----||--5-7--|
    D|-------------------------------------4---1--||--5-7--|
    A|--------------------------------------------||-------|
    E|--------------------------------------------||-------|
    
    E|-------------------------------------------------------------|
    B|--4/5-5-5/7--7--7/9--9--9/10--10--10/12--12-12-12--15P12-----|
    G|--4/5-5-5/7--7--7/9--9--9/10--10--10/12--12-12-12--15P12-----|
    D|-------------------------------------------------------------|
    A|-------------------------------------------------------------|
    E|-------------------------------------------------------------|
    
    E|-------------------------------------------------------------|
    B|--10h13P12P10-----8/10-12--12-13-10--------------------------|
    G|---------------12---------------------13-12-10----10/12-12---|
    D|-----------------------------------------------12------------|
    A|-------------------------------------------------------------|
    E|-------------------------------------------------------------|
    
    E|--------14-------10-12-12sl15-15-15-|
    B|--12^14----12^14--------------------|
    G|------------------------------------|
    D|------------------------------------|
    A|------------------------------------|
    E|------------------------------------|
    
    E|--15P14P12----12-------------------------------------------------------|
    B|-----------15----15-14-12--12h14----12---------------------------------|
    G|---------------------------------15-----------15P14P12-------12--------|
    D|---------------------------------------14--12----------12-14----14-12--|
    A|-----------------------------------------------------------------------|
    E|-----------------------------------------------------------------------|…
  • Tune: 1/2 step down Eb Bb Gb Db Ab Eb
    
    intro:
    Eb|--------------------------------------------------------------------
    Bb|--------------------------------------------------------------------
    Gb|--------------------------------------------------------------------
    Db|--------------------------------------------------------------------
    Ab|--------------------------------------------------------------------
    Eb|--0-0-0-0-3-3-3-3-5-5-5-5-6-6-6-6--0-0-0-0-3-3-3-3-5-5-5-5-3-3-3-3--
    
    -----------------------------------------------------------------------|
    -----------------------------------------------------------------------|
    -----------------------------------------------------------------------|
    -----------------------------------------------------------------------|
    -----------------------------------------------------------------------|
    -----0-0-0-0-3-3-3-3-5-5-5-5-6-6-6-6--7-3-0----------------------------|
    
    stanza:
    Eb|------------------------------…
  • Tune 12 fret lower
    
    intro & stanza: 
    Eb|------3-2-----------------------3-2------------------|
    Bb|--3-0-0---0-0-0-1-1-1-3-3--3--0-0---0-0-0-1-1-1-3-3--|
    Gb|--0-0-0---0-0-0-2-2-2-4-4--0--0-0---0-0-0-2-2-2-4-4--|
    Db|--0-------0-0-0-0-0-0-0-0--0--------0-0-0-0-0-0-0-0--|
    Ab|--2------------------------2-------------------------|
    Eb|--3------------------------3-------------------------|
    
    Eb|------3-2----------------------3-2-------------------|
    Bb|--3-0-0---0-0-0-1-1-1-3-3--3-0-0---0-0-0-1-1-1-3-3---|
    Gb|--0-0-0---0-0-0-2-2-2-4-4--0-0-0---0-0-0-2-2-2-4-4---|
    Db|--0-------0-0-0-0-0-0-0-0--0-------0-0-0-0-0-0-0-0---|
    Ab|--2------------------------2-------------------------|
    Eb|--3------------------------3-------------------------|
    Chorus:
    Eb|--5--5--5--5--5--5--5--3-3-3-3-----------------------|
    Bb|--6--6--6--6--6--6--6--5-5-5-5-----------------------|
    Gb|--5--5--5--5--5--5--5--5-5-5-5-----------------------|
    Db|--3-----3--3-----3--3--5-5-5-5-----------------------|
    Ab|-----------------------3-3-3-3-----------------------|
    Eb|-----------------------------------------------------|
    
    Eb|------3-2----------------4---------------------------|
    Bb|--3-0-0---0-0-0-1-1-1-3--6---------------------------|
    Gb|--0-0-0---0-0-0-2-2-2-4--5---------------------------|
    Db|--0-------0-0-0-0-0-0----3---------------------------|
    Ab|--2--------------------------------------------------|
    Eb|--3--------------------------------------------------|
    
    Eb|--3-3-3-3--1-1-1------3-2----------------------------|
    Bb|--5-5-5-5--3-3-3--3-0-0---0-0-0-1-1-3-3--------------|
    Gb|--5-5-5-5--3-3-3--0-0-0---0-0-0-2-2-4-4--------------|
    Db|--5-5-5-5--3-3-3--0-------0-0-0-0-0-0-0--------------|
    Ab|--3-3-3-3--1-1-1--2----------------------------------|
    Eb|------------------3----------------------------------|
    Interlude:
    Eb|--2------1-0-3-7-------------------------------------|
    Bb|--0--------------0-0-1-0---3-0---3-0---0-------------|
    Gb|--0------------------0-----0-----2---------------|
    Db|--0----------------------------------------------|
    Ab|--2--------------------------------------------------|
    Eb|--3--------------------------------------------------|
    
    Eb|---------------------1-1-1-0-0-0-0-0--------------------------|
    Bb|-----------------0-0-3-3-3-3-3-3-3-3-----------------0-0------|
    Gb|--4-4-4--5-5-5-5-0-0-3-3-3-3-3-3-3-3--3-3-3-5-5-5-5--0-0------|
    Db|--3-3-3--3-3-3-3-0-0-3-3-3-3-3-3-3-3--4-4-5-3-3-3-3--0-0------|
    Ab|--5-5-5--3-3-3-3----------------------5-5-5-3-3-3-3-----------|
    Eb|--3-3-3-------------------------------3-3-3-------------------|
    
    Eb|-----------5-3-1------3-2-------------------------------------|
    Bb|-----------6-5-3--3-0-0---0-0-0-1-1-1-3-3---------------------|
    Gb|-----3--5--5-5-3--0-0-0---0-0-0-2-2-2-4-4---------------------|
    Db|--5--3--5--3-5-3--0-------0-0-0-0-0-0-0-0---------------------|
    Ab|--3--1--3----3-1--2-------------------------------------------|
    Eb|--3---------------3-------------------------------------------|
    Ending…
  • Intro:
    Eb|--------------------------|
    Bb|------5-6----------5-6----|
    Gb|--7-7-----7------5-----7--|
    Db|--7---------7-9--7-----7--|
    Ab|--------------------------|
    Eb|--------------------------|
    
    stanza:
    Eb|--------------------------------------|
    Bb|------5-6--------------5-6------------|
    Gb|--7-7-----7------4-5-5-----7----------|
    Db|--7-------7----7---7-------7---7---7--|
    Ab|--5-------5--5-----5-------5-0---5----|
    Eb|--------------------------------------|
    
    chorus:
    Eb|--7-7-7-7-5-8h10p8--|
    Bb|--8---8-8-6---------|
    Gb|--7---7-9-7---------|
    Db|--9---9-7-5---------|
    Ab|--7---7-------------|
    Eb|--------------------|…
  • Tuning: tunedown halfstep [Eb,Ab,Db,Gb,Bb,Eb] 
     
    INTRO:
    e|---------------------------------------------------------------------------| 
    B|----------------------------------2-----4-----5--4--3-2--4-----------------| 
    G|-------------------------2--4----------------------------------------------|…
  • Intro
    Eb|-------------------------------------|
    Bb|-------------------------------------|
    Gb|-------------------------------------|
    Db|-------------------------------------|
    Ab|--2-3---3-6-2-2-3---3-6-2-2-3---3-6--|
    Eb|--0-1-0-1-4-0-0-1-0-1-4-0-0-1-0-1-4--|
    
    stanza
    Eb|--------------------------------------------------|
    Bb|--------------------------------------------------|
    Gb|------------------|-------------|-----------------|
    Db|----------0-2-3/--|-------------|--2^4(vb)(ah)----|
    Ab|--2-2-3-----------|--2-3---3-6--|-----------------|
    Eb|--0-0-1-0---------|--0-1-0-1-4--|-----------------|
    
    refrain
    Eb|------------------------|
    Bb|------------------------|
    Gb|------------------------|
    Db|---------5-------5-4----|
    Ab|--7-5-2--3-7-5-2-3-2----|
    Eb|--5-3-0----5-3-0--------|
    (repeat…
  • TUNE 1/2
    
    INTRO/CHORUS
    Eb|---------------------------------||----------------------------------|
    Bb|---------------------------------||----------------------------------|
    Gb|---------------------------------||----------------------------------|
    Db|---------------------------------||----------------------------------|
    Ab|----4---5---4-------------2-4-4--||----4---5---4--------------24-4--|
    Eb|--2---2---2----2-2-2--2-4--------||--2---2---2-----2-2-2--2-4--------|…
  • tuning 1/2 lower  
    effects: clean with chorus 
    
    Intro                                       A  
    Eb|-----------------------------------------------7---| 
    Bb|--7h8-7---7h8p7---7~~(7)--------------------5------| 
    Gb|--7---7---7h9p7---7~~(7)----------7----------------|…
Наверх