Аккорды «Wolfgang Amadeus Mozart»

Wolfgang Amadeus Mozart
Вольфганг Амадей Моцарт (нем. Wolfgang Amadeus Mozart, полное имя Johannes Chrysostomus Wolfgangus Theophilus Mozart — Йоханн Хризостом Вольфганг Теофил Моцарт; 27 января 1756 — 5 декабря 1791) — один из величайших композиторов мира, один из основоположников классической музыки. Был также виртуозным скрипачом, клавесинистом, органистом, дирижёром. По свидетельству современников, обладал феноменальным музыкальным слухом, памятью и способностью к импровизации. Моцарт родился 27 января 1756 года в… Читать полностью... Вольфганг Амадей Моцарт (нем. Wolfgang Amadeus Mozart, полное имя Johannes Chrysostomus Wolfgangus Theophilus Mozart — Йоханн Хризостом Вольфганг Теофил Моцарт; 27 января 1756 — 5 декабря 1791) — один из величайших композиторов мира, один из основоположников классической музыки. Был также виртуозным скрипачом, клавесинистом, органистом, дирижёром. По свидетельству современников, обладал феноменальным музыкальным слухом, памятью и способностью к импровизации. Моцарт родился 27 января 1756 года в Зальцбурге, бывшем тогда столицей независимого архиепископства, теперь этот город находится на территории Австрии. На второй день после рождения он был крещён в Соборе св. Руперта. Запись в книге крещений даёт его имя на латыни как Johannes Chrysostomus Wolfgangus Theophilus (Gottlieb) Mozart. В этих именах первые два — имена святых, не использующиеся в повседневной жизни, а четвёртое при жизни Моцарта варьировалось: лат. Amadeus, нем. Gottlieb, итал. Amadeo. Сам Моцарт предпочитал, чтобы его называли Вольфганг. Музыкальные способности Моцарта проявились в очень раннем возрасте, когда ему было около трёх лет. Его отец Леопольд был одним из ведущих европейских музыкальных педагогов. Его книга «Versuch einer gründlichen Violinschule» (Эссе об основах игры на скрипке) была опубликована в 1756, в год рождения Моцарта, выдержала много изданий и была переведена на множество языков, в том числе и на русский. Отец обучил Вольфганга основам игры на клавесине, скрипке и органе. В Лондоне малолетний Моцарт был предметом научных исследований, а в Голландии, где во время постов строго изгонялась музыка, для Моцарта было сделано исключение, так как в его необычайном даровании духовенство усматривало перст Божий. В 1762 г. отец Моцарта предпринял с сыном и дочерью Анной, также замечательной исполнительницей на клавесине, артистическое путешествие в Мюнхен и Вену, а затем и во многие другие города Германии, Париж, Лондон, Голландию, Швейцарию. Всюду Моцарт возбуждал удивление и восторг, выходя победителем из труднейших испытаний, которые ему предлагались людьми как сведущими в музыке, так и дилетантами. В 1763 г. изданы в Париже первые сонаты Моцарта для клавесина и скрипки. С 1766 по 1769 г., живя в Зальцбурге и Вене, Моцарт изучал Генделя, Страделла, Кариссими, Дуранте и других великих мастеров. По повелению императора Иосифа II Моцарт написал за несколько недель оперу «La Finta semplice» (Притворная простушка), но члены итальянской труппы, в руки которых попало это произведение 12-летнего композитора, не пожелали исполнять музыку мальчика, и их интриги были столь сильны, что его отец не решился настаивать на исполнении оперы. 1770—74 гг. Моцарт провёл в Италии. В 1771 г. в Милане, опять же при противодействии театральных импрессарио, все же была поставлена опера Моцарта «Mitridate, Rе di Ponto» (Митридат, царь Понтийский), которая была принята публикой с большим энтузиазмом. С таким же успехом была дана и вторая его опера, «Lucio Sulla» (Луций Сулла) (1772). Для Зальцбурга Моцарт написал «Il sogno di Scipione» (Сон Сципиона, по поводу избрания нового архиепископа, 1772), для Мюнхена — оперу «La bella finta Giardiniera», 2 мессы, офферторий (1774). Когда ему минуло 17 лет, между его произведениями насчитывались уже четыре оперы, несколько духовных стихотворений, 13 симфоний, 24 сонаты, не говоря о массе более мелких композиций. В 1775—1780 гг., несмотря на заботы о материальном обеспечении, бесплодную поездку в Мюнхен, Мангейм и Париж, потерю матери, Моцарт написал, среди прочего, 6 клавирных сонат, концерт для флейты и арфы, большую симфонию №31 D-dur, прозванную Парижской, несколько духовных хоров, 12 балетных номеров. В 1779 г. Моцарт получил место придворного органиста в Зальцбурге. 26 января 1781 г. в Мюнхене с огромным успехом была поставлена опера «Идоменей». С «Идоменея» начинается реформа лирико-драматического искусства. В этой опере видны ещё следы староитальянской opera seria (большое число колоратурных арий, партия Идоманты, написанная для кастрата), но в речитативах и в особенности в хорах ощущается новое веяние. Большой шаг вперёд замечается и в инструментовке. Во время пребывания в Мюнхене Моцарт написал для мюнхенской капеллы офферторий «Misericordias Domini» — один из лучших образцов церковной музыки конца XVIII века. С каждой новой оперой творческая сила и новизна приёмов М. проявлялись всё ярче и ярче. Опера «Похищение из Сераля» («Die Entführung aus dem Serail»), написанная по поручению императора Иосифа II в 1782 г., была принята с энтузиазмом и вскоре получила большое распространение в Германии, где её стали считать первой национальной немецкой оперой. Она была написана во время романтических отношений Моцарта с Констанцей Вебер, которая впоследствии стала его женой. В 1783—85 гг. созданы шесть знаменитых струнных квартетов, которые Моцарт посвятил Йозефу Гайдну, мастеру этого жанра и которые тот принял с величайшим почтением. К этому же времени относится его оратория «Davide penitente» (Кающийся Давид). С 1786 г. начинается необычайно плодовитая и неустанная деятельность Моцарта, которая была главной причиной расстройства его здоровья. Примером невероятной быстроты сочинения может служить опера «Свадьба Фигаро», написанная в 1786 г. в шесть недель и тем не менее поражающая мастерством формы, совершенством музыкальной характеристики, неиссякаемым вдохновением. В Вене «Свадьба Фигаро» прошла почти незамеченной, но в Праге она вызвала необычайный восторг. Не успел соавтор Моцарта Лоренцо да Понте закончить либретто «Свадьбы Фигаро», как ему пришлось по требованию композитора спешить с либретто «Дон-Жуана», которого Моцарт писал для Праги. Это великое произведение, не имеющее аналогов в музыкальном искусстве, увидело свет в 1787 г. в Праге и имело ещё больший успех, чем «Свадьба Фигаро». После смерти Иосифа II (1790) материальное положение Моцарта оказалось настолько безвыходным, что он должен был уехать из Вены от преследований кредиторов и артистическим путешествием хоть немного поправить свои дела. Последними операми Моцарта были «Cosi fan tutte» (1790), прекрасной музыке которой вредит слабое либретто, «Милосердие Тита» (1791), заключающая в себе чудные страницы, несмотря на то, что была написана в 18 дней, для коронации императора Леопольда II, и наконец, «Волшебная флейта» (1791), имевшая колоссальный успех, чрезвычайно быстро распространившийся. Эта опера, в старых изданиях скромно названная опереттой, вместе с «Похищением из Сераля» послужила основанием самостоятельного развития национальной немецкой оперы. В обширной и разнообразной деятельности Моцарта опера занимает самое видное место. Мистик по натуре, он много работал для церкви, но великих образцов в этой области он оставил немного: кроме «Misericordias Domini» — «Ave verum corpus» (KV618), (1791) и величественно-горестный реквием (KV 626), над которым Моцарт неустанно, с особенной любовью, работал в последние дни жизни. Закончил его уже ученик Моцарта Зюсмайер, ранее принимавший некоторое участие в сочинении оперы «Милосердие Тита». Умер Моцарт 5 декабря 1791 г. от болезни, возможно вызванной почечной инфекцией (хотя до сих пор причины смерти вызывают споры, включая версию об отравлении Моцарта масонами или другим австрийским композитором - Антонио Сальери). Похоронен в Вене, на кладбище Св. Марка в общей могиле, поэтому само место захоронения осталось неизвестным. Скрыть...
Популярные аккорды Wolfgang Amadeus Mozart:
алфавиту | просмотрам | случайно
  • Часть 1
    
    Размер = 2/4
    
    E|---|-3-|-7-|-10--7--10--7-|-10---3-|-2--0-----3-|-2--0-------|
    B|-3-|---|---|--------------|--------|-------3----|-------3--3-|
    G|---|---|---|--------------|--------|------------|------------|
    D|---|---|---|--------------|--------|------------|------------|
    A|---|---|---|--------------|------2-|-3-----2----|-3-----2----|
    D|---|---|---|--------------|--------|------------|------------|
    
    E|-8--7-|-5-3-2-0-----|-3-|-7-|-10--7--10--7-|-10--3-|-2-0---3-|
    B|------|---------3-3-|---|-0-|--------------|-------|-----3---|
    G|------|-------------|-0-|---|--------------|-------|---------|
    D|------|-------------|---|---|--0------0----|--0----|---------|
    A|------|-------------|---|---|--------------|-----2-|-3---2---|
    D|-4--5-|-0-----------|-5-|-9-|-----9------9-|-------|---------|
    
    E|-2--0-----7-|--8----5-|--3-|
    B|------------|--10---7-|--0-|
    G|-------7----|---------|----|
    D|------------|-------0-|----|
    A|-3----------|---------|----|
    D|-------9----|--10-----|--5-|
    
    Часть…
  • Q = 65
    E|-------------------------|----------------------|
    B|-------------------2-----|-3--------------------|
    G|-------2-----0-----0-----|-2------------------0-|
    D|-3-----3-----2-----2-----|-3------2-----0-------|
    A|-5-----------------------|--------4-----0-----0-|
    E|-------------------------|----------------------|
    
    E|---------5-6---------8-6-|---5-10---6-3-------5---|
    B|-------------------------|----------------5-6---5-|
    G|---6-7---------7-6-------|------------------------|
    D|-------------------------|------------------------|
    A|-------------------------|------------------------|
    E|-------------------------|------------------------|
    
    E|---------1---------------|---------1---------------|
    B|-3---3-----3-3-----2-----|-3---3-----3-3-----2-----|
    G|-2-2---------2---2-0---0-|-2-2---------2---2-0---0-|
    D|-3-----3-----0-0---2-2---|-3-----3-----0-0---2-2---|
    A|-------------------------|-------------------------|
    E|-------------------------|-------------------------|
    
    E|---------5-6---------6-5-|---------5-6---------6-5-|
    B|-------------------------|-------------------------|
    G|---6-7---------7-6-------|---6-7---------7-6-------|
    D|-------------------------|-------------------------|
    A|-------------------------|-------------------------|
    E|-------------------------|-------------------------|
    
    E|-------------------------|-------------------------|
    B|-------------------------|-------------------0---3-|
    G|-------------------0---0-|-2---2-------2---2-0-0---|
    D|-0---0-2---2-0---0-2-2---|-3-3-------0-2-2---0-----|
    A|-0-0---4-4---0-0---3-----|-3-------2---0-----------|
    E|-1-----5-----5-----------|-------4-----------------|
    
    E|-------------------------|-------------------------|
    B|-------------------------|---------------1-----3---|
    G|-------------------------|---2-----4-------2-----0-|
    D|---0-----2-----3-----5---|-----3-----2-------------|
    A|-----0-----0-----5-----3-|-------------------------|
    E|-------------------------|-------------------------|
    
    E|-------------------------|-------------------------|
    B|-------------------------|-0-----3---3-3---3-2---2-|
    G|-0---0-0---0-2---2-2---2-|-0---0---2-----2-----0---|
    D|---2-----2---3-3---1-1---|-0-0---3-----3-----2-----|
    A|-3-----3-----3-----3-----|-------------------------|
    E|-------------------------|-------------------------|
    
    E|---------------------2---|---3-----5-----5---------|
    B|---5-----5-----6---------|-------------------------|
    G|-----5-----5-----5-----2-|-----4-----3-----2---2---|
    D|-------------------------|-------------------------|
    A|-------------------------|-----------------------0-|
    E|-------------------------|-------------------------|
    
    E|---------------------1---|--------------------------|
    B|-----------------------3-|-2---2---3--5---5-3---3---|
    G|-2---2---3-2-2---2-------|-0-0--------3-3---3-3-----|
    D|-2-2---------3-3---------|-2-----2----3-----3-----3-|
    A|-0-----0-----0-----0-----|--------------------------|
    E|-------------------------|--------------------------|
    
    E|---------------------1---|--------------------------|
    B|-----------------------3-|---------3⁄-5-----------3-|
    G|---------3-2-------------|---0------------2---------|
    D|---2-----------0---------|----------------------3---|
    A|-----0-----------0-------|-----1------------0-------|
    E|-------------------------|--------------------------|
    
    E|---------3---------------|---------1---------------|
    B|-4---4-----4-4---4-3---3-|-3---3-----3-5---5-3-----|
    G|-3-3---------3-3---3-3---|-2-2---------3-3---2-2-1-|
    D|-1-----1-----1-----3-----|-3-----3-----3-----3-----|
    A|-------------------------|-------------------------|
    E|-------------------------|-------------------------|
    
    E|---------3---------------|-----------------------4-|
    B|---4-------4---4-----3---|---3-----6-5---5-----3---|
    G|-----------------------3-|-------------------------|
    D|-----1-----------3-------|-----0-----------3-------|
    A|-------------------------|-------------------------|
    E|-------------------------|-------------------------|
    
    E|---------3-1-------------|---------------------|
    B|-3---3-------6---6-5---5-|-5---5---------------|
    G|-3-3---------5-5---3-3---|-3-3-----2-0-0---0---|
    D|-3-----3-----5-----3-----|-2-----2-----2-2---3-|
    A|-------------------------|-------------------5-|
    E|-------------------------|---------------------|
    
    E|---------3-1---1-------6-|---6-----5-3---3--------10-|
    B|-----3---------------5---|---------------------------|
    G|-----------------0-------|-----3-----------2---10----|
    D|---0---------------------|---------------------------|
    A|-------------------------|---------------------------|
    E|-------------------------|---------------------------|
    
    E|--------------------------------|--------------------------|
    B|----------------3-------3-------|-3------------------------|
    G|-4-------5----------------------|---------5------4-------4-|
    D|-3-------3------3-------3-------|-3-------3------3-------3-|
    A|-0-------0------0-------0-------|-0-------0------0-------0-|
    E|--------------------------------|--------------------------|
    
    E|-----------8-----10------10-|------10------8-----------------|
    B|----12----------------------|---------------------12------12-|
    G|-10-----10----10------10----|---10------10-----10------10----|
    D|----------------------------|--------------------------------|
    A|----------------------------|--------------------------------|
    E|----------------------------|--------------------------------|
    
    E|-------------------------|-------------------------|
    B|-0---0---------3-------6-|-6---6---3---------------|
    G|-0-0---5---5-----5-5---5-|-5-5-----4-4-5---5---3-0-|
    D|-3-----3-3---------3---3-|-3-----3-3---3-3---------|
    A|-------0-----0-------0---|-------------0-----0-----|
    E|-------------------------|-------------------------|
    
    E|-----------------------1-|-1---1-------------------|
    B|-----0-----1-----3---1---|---3-----3-0-1---1-1-----|
    G|---0-----0-----5---------|---------------------3-0-|
    D|-------------------------|-------------------------|
    A|-------------------------|-------------------------|
    E|-------------------------|-------------------------|
    
    E|------------------------|-------------------------|
    B|-------4----3-----------|-3---3---3---------------|
    G|-2-----2----3-----2-----|-3-3-----4-4-5---5---3-0-|
    D|-3-----3----3-----3-----|-3-----3-3---3-3---------|
    A|-0----------------0-----|-------------0-----0-----|
    E|------------------------|-------------------------|
    
    E|-----1---1--------------|-------------------------|
    B|--------------------4-6-|-6-------3-0-1-----1-----|
    G|----------------2-5-----|---------------------3-0-|
    D|-3-3---3------3---------|-------------------------|
    A|------------------------|-------------------------|
    E|------------------------|-------------------------|
    
    E|-------------------------|----------1---------------|
    B|-------2---2-2---2-2---2-|-3---3------3-3-----2---2-|
    G|-2---2-2-2---0-0---0-0---|-2-2----------2---2-0-0---|
    D|-3-3---3-----2-----2-----|-3------3-----0-0---2-----|
    A|-0-----------------------|--------------------------|
    E|-------------------------|--------------------------|
    
    E|-----5-----3-----5-----9-|-----10---5-6---------6-5-|
    B|---------------6-----6---|---6----------------------|
    G|-------------------------|----------------7-6-------|
    D|-3-3-----3---------------|--------------------------|
    A|-------------------------|--------------------------|
    E|-------------------------|--------------------------|
    
    E|---------1---------------|--------------------------|
    B|-3---3-----3-3-----2---2-|-3------------------------|
    G|-2-2---------2---2-0-0---|-2-2---5-----3-----2------|
    D|-3-----3-----0-0---2-----|-3---3-3-3---5-5---3-3----|
    A|-------------------------|-------0---0-5---5-3----3-|
    E|-------------------------|--------------------------|
    
    E|---------5-6---------6-5-|---------5-6---------10-8-|
    B|-------------------------|---2-3---------3-2--------|
    G|---6-7---------7-6-------|--------------------------|
    D|-------------------------|--------------------------|
    A|-------------------------|--------------------------|
    E|-------------------------|--------------------------|
    
    E|--------------------------|------------------------|
    B|--------------------------|------------------------|
    G|-0-----------0-----2-2----|--------------2---2-2---|
    D|-2-2---3-----2-2---0----0-|-2-----0------2-2---3-3-|
    A|-2---2-3-3---0---0--------|-1-1---0-0----0-----0---|
    E|-------5---5-------2------|-0---0-0----0-----------|
    
    E|---------6-5---------10-8-|---------10-------------|
    B|---3-4---------6-5--------|---5-3------6---2-5---6-|
    G|--------------------------|------------------------|
    D|--------------------------|------------------------|
    A|--------------------------|------------------------|
    E|--------------------------|------------------------|
    
    E|------------------------------|---------------------|
    B|------------------------------|-------3-----3-----3-|
    G|----2---2-2-------2---2-2---2-|-2-----2-----2-----2-|
    D|----2-2---3-3-----3-3---2-2---|-0-----0-----0-----0-|
    A|-0--0-----0----0--0-----0-----|-0-----0-----0-----0-|
    E|------------------------------|---------------------|
    
    E|-10-----5---10------5-----9---|---------3-2---6-5---10-8-|
    B|------5--------10-----5-------|---2-3--------------------|
    G|----------------------------9-|--------------------------|
    D|------------------------------|--------------------------|
    A|------------------------------|--------------------------|
    E|------------------------------|--------------------------|
    
    E|--------------------------|-2----*-|
    B|-3-3----------------------|-3----*-|
    G|-2----2-3-3---2---2-2-2---|-2----*-|
    D|-0------3---3-3-3---2---2-|-0----*-|
    A|-0------0-----0-----0-----|-0----*-|
    E|--------------------------|------*-|
    
    E|---10-5---6-3---3-0-------|------*-|
    B|----------------------6-2-|------*-|
    G|--------------------------|-7----*-|
    D|--------------------------|-7----*-|
    A|--------------------------|-5----*-|
    E|--------------------------|-5----*-|…
  • E|---------------------------------------------------------|
    B|-4-3-3---4-3-3---4-3-3---11~--11-10-8---8-6-4----4-3-1-1-|
    G|---------------------------------------------------------|
    D|---------------------------------------------------------|
    A|---------------------------------------------------------|
    E|---------------------------------------------------------|
    
    E|--------------------------------------------------------|
    B|-3-1-1---3-1-1---3-1-1---10~--10-8-7---7-4-3----3-1-----|
    G|----------------------------------------------------3-3-|
    D|--------------------------------------------------------|
    A|--------------------------------------------------------|
    E|--------------------------------------------------------|
    
    E|-------------------------------------------------------------|
    B|-11-10-10-13--7-10-8-3~-11-10-10-13-7-10-8~--11~--10-8-6-4-3-|
    G|-------------------------------------------------------------|
    D|-------------------------------------------------------------|
    A|-------------------------------------------------------------|
    E|-------------------------------------------------------------|
    
    E|--------------------------------------------------------|
    B|--------------------------------------------------------|
    G|-------6----5-3-2---7----6---7---6---7---6----7-6-7-6-7-|
    D|-4-5-7-8----------5-4----5---4---5---4---5----4-5-4-5-4-|
    A|--------------------------------------------------------|
    E|--------------------------------------------------------|…
  • E|-3-3---3-----3-----3-------|-------------------------|
    B|-------------------------3-|-3-----3---3---3-----4-4-|
    G|-0-0---0-----0-----0-------|-------------------------|
    D|-------------------------0-|-0-----0---0---0-----1-1-|
    A|---------------------------|-------------------------|
    E|---------------------------|-------------------------|
    
    E|----------------------------|
    B|-4---4-----4----------------|
    G|----------------------------|
    D|-1---1-----1-----4---4-----4|
    A|----------------------------|
    E|-----------------2---2-----2|
    
    E|-------------------------------------3-|
    B|-------------------------------3-------|
    G|-------------------------3-------------|
    D|-4--------4--------5-------------------|
    A|---------------------------------------|
    E|-2--------2----------------------------|
    
    
    E|-6--5--3--2--3-------------------------3-----6|
    B|---------------------------------3------------|
    G|----------------------------3-----------------|
    D|----------------------5-----------------------|
    A|----------------------------------------------|
    E|----------------------------------------------|
    
    E|-5--3--2--3-----------------------5-----8--7|
    B|----------------------------7---------------|
    G|-------------------------5------------------|
    D|-------------------7------------------------|
    A|--------------------------------------------|
    E|--------------------------------------------|
    
    E|-5--4--5-------------------------5-----8--7--5|
    B|---------------------------7------------------|
    G|---------------------5------------------------|
    D|----------------7-----------------------------|
    A|----------------------------------------------|
    E|----------------------------------------------|
    
    E|-4--5-------------------------6----10--8--6--5|
    B|------------------------8---------------------|
    G|-------------------7--------------------------|
    D|-------------8--------------------------------|
    A|----------------------------------------------|
    E|----------------------------------------------|
    
    E|-6-----8--6--5--3--5--6--5-3-2-3---2-3|
    B|--------------------------------------|
    G|--------------------------------------|
    D|--------------------------------------|
    A|--------------------------------------|
    E|--------------------------------------|
    
    E|-2-3-----------------------------|-------------------------3-|
    B|-----2-3-2-3---------------------|---------------------------|
    G|-------------2-3-2-3---------5-5-|-5-2-2-2-----------------0-|
    D|---------------------4-5-4-5-----|---------4-4-4-5-5-5-4-----|
    A|---------------------------------|-----------------------5---|
    E|---------------------------------|---------------------------|
    
    E|-3-----3-----3-----3-------|-----------------------------|
    B|---------------------3---3-|-3-----3-----3---4---4-----4-|
    G|-0-----0-----0-----0-------|-----------------------------|
    D|---------------------0---0-|-0-----0-----0---1---1-----1-|
    A|---------------------------|-----------------------------|
    E|---------------------------|-----------------------------|
    
    E|----------------------|-----3---------|--------------3|
    B|-4-----4--------------|---------3---4-|---------------|
    G|----------------------|---------------|---------------|
    D|-1-----1---4-4---4--4-|-4-------------|-4---5---------|
    A|----------------------|---------------|---------------|
    E|-----------2-2---2--2-|-2-------------|---------------|…
  • Условные обозначения:
                                                     ритм
                                                   /---------⁄
                                                   |   |   |
          / E-|--------|-------|-------|----(0----|--------0===|…
  • E||---3-|-0-----------|-------------|--------------|-----------|
    B||-----|----1--0--3--|--1----------|--------0--0--|--1--------|
    G||*----|-------------|-----0----0--|--2--2--------|---------0-|
    D||*----|-------0-----|--2-------2--|--3--3--0--0--|--2------2-|
    A||-----|-3-----------|-------------|--------------|--3--------|
    E||-----|-------------|-------------|--------------|-----------|
    
    E|------------|--------0-|------------|-----------|------------|
    B|-------0--0-|-1--------|-3--------1-|-0---------|----------0-|
    G|-2--2-------|----------|----0-------|----0----0-|-2--1--2----|
    D|-3--3--0--0-|-2--------|-------4----|-----------|-------0----|
    A|------------|-3------3-|-2-----0----|---------2-|-3----------|
    E|------------|----------|------------|-3---------|------------|
    
    E|----------|--------------|----||--3-|-3----------|-----------|
    B|----------|------------0-|----||----|----5--5--2-|-2---------|
    G|-0------0-|--2-1-2-1-2---|-0-*||*---|------------|------0--2-|
    D|-2--------|------------0-|---*||*---|------------|-----------|
    A|--------2-|--3-----------|----||----|------------|-0---------|
    E|----------|--------------|-3--||----|------------|-----------|
    
    E|-------0----|-1------1-|-1----------|-----------|------------|
    B|-3----------|----------|----3--3--0-|-0---------|-1-----3----|
    G|----2-----2-|----------|------------|---------0-|----0-----0-|
    D|-3----------|-0--------|------------|------3----|-2----------|
    A|-------4----|----------|------------|-----------|-------2----|
    E|------------|----------|------------|-3---------|------------|
    
    E|-0------3-|-0----------|-----------|-------------|-----------|
    B|----------|----1--0--3-|-1---------|-------0--0--|--1--------|
    G|----------|------------|----0----0-|-2--2--------|---------0-|
    D|----------|-------0----|-2-------2-|-3-----0-----|--2------2-|
    A|-3--------|-3----------|-----------|-------------|--3--------|
    E|----------|------------|-----------|-------------|-----------|
    
    E|------------|---------|----------0-|----------|------------0-|
    B|-------0--0-|-1-----1-|-3--2--3----|-1------1-|-3-2-3-2-3----|
    G|-2--2-------|---------|-------0----|-2--------|------------0-|
    D|-3-----0----|-2-----2-|-3----------|--------2-|-3------------|
    A|------------|-3-------|------------|----------|--------------|
    E|------------|---------|------------|----------|--------------|
    
    E|----------|
    B|-1--------|
    G|--------*-|
    D|--------*-|
    A|-3--------|
    E|----------|…
  • E||---------^-^-^-|----------|--3-----2--|2-0-------|
    B||--0-----1-0-1-0|-3-----3--|--5-----3--|--1-----3-|
    G||--0-----2------|-4-----4--|-----------|--------4-|
    D||---------------|----------|-----------|----------|
    A||---------------|----------|-----------|----------|
    E||--3--3--3------|-3--3--3--|--3--3--3--|--3--3--3-|
    
    E|--------^-^-^--|---------|-0-------|-^---------|-------------|
    B|-0-----1-0-1-0-|-3-----3-|-1-----3-|3-1-----0--|---------0---|
    G|-0-----2-------|-4-----4-|-------4-|--2-----0--|---0---0---0-|
    D|---------------|---------|---------|-----------|-0---4-------|
    A|---------------|---------|---------|-----------|-2-----------|
    E|-3--3--3-------|-3--3--3-|-3--3--3-|--3--3--3--|-------------|
    
    E|--------------|--------------|----------0---|----------8----|
    B|----------1---|----0---0-3-0-|----1-0-1---1-|--3-------10---|
    G|----2-1-2---2-|------3-------|--0-----------|---------------|
    D|--2-----------|--4-----------|--2-----------|----0---0----0-|
    A|--3-----------|--5-----------|--------------|------4---9----|
    E|--------------|--------------|--------------|--2------------|
    
    E|-7-----------|---------2---|-3-----------|--------------|
    B|-8-------3---|-1-------1---|-0-------0---|--1---0---1-0-|
    G|-0-------4---|-2-----------|---------0---|----1---2-----|
    D|---0---0---0-|---0---0---0-|---0---0---0-|--2-----------|
    A|-----4-------|-0---4---0---|-2---4---2---|--3-----------|
    E|---------3---|-------------|-------------|--------------|
    
    E|------0-----|-----------|-----------|-----------|----------|
    B|--3-1-------|-----------|-----0-----|-----------|----------|
    G|---------0--|-----5-----|--0-----0--|-----2-----|-----0----|
    D|------------|--4-----4--|--2-----2--|--2-----2--|--0-----0-|
    A|---------3--|--5-----5--|-----------|--3-----3--|--2-----2-|
    E|------------|-----------|-----------|-----------|----------|
    
    E|---------|---------|-------------|---------0---|-2-----------|
    B|---------|---------|-------------|-----1-----1-|-1-----------|
    G|---------|----0--2-|-4-------2---|---0---0-----|-2-0---0-2---|
    D|-0--4--0-|---------|-3-5-4-5---5-|-2-----------|-----4-----4-|
    A|-0-----0-|-2-------|-5-----------|-------------|-------------|
    E|---------|-3-------|-3-----------|-3-----------|-3-----------|
    
    E|--3-7-3-------|--------------|----------0---|--2-----------|
    B|--------3-----|--------------|------1-----1-|--1-----------|
    G|----------4---|--4-------2---|----0---0-----|--2-0---0-2---|
    D|------------5-|--3-5-4-5---5-|--2-----------|------4-----4-|
    A|--------------|--5-----------|--------------|--------------|
    E|--3-----------|--3-----------|--3-----------|--3-----------|
    
    E|--3-5-7-3-2---|--0-----------|--------------|--------------|
    B|------------4-|----------3---|--3---1---0---|--0-------0---|
    G|--------------|----0---0---0-|----0---0---0-|----0-2-0---0-|
    D|--------------|------4---0---|--2---2---0---|------4---0---|
    A|--------------|--3-----------|--------------|--3-----------|
    E|--3-----------|--------------|--------------|--------------|
    
    E|-------------|-------------|-------------|-----10--10--|--10-|
    B|-3---1---0---|-0-------0---|-3---1---0---|-------------|-----|
    G|---0---0---0-|---0-2-0---0-|---0---0---0-|--2--11--11--|--11-|
    D|-2---4---0---|-----4---0---|-2---4-------|--4--7-------|-----|
    A|-------------|-3-----------|---------4---|--5------9---|-----|
    E|-------------|-------------|-------------|-------------|--10-|
    
    E|-5--4--7-|-5--4--7-|-------0-|--------0--|--------2---|
    B|---------|---------|-3--2----|--3--2-----|--3-------3-|
    G|---------|---------|-------0-|--------0--|------------|
    D|---------|---------|-4--2----|--4--2-----|--4-----0---|
    A|---------|---------|-0-------|--0--------|--0--0------|
    E|---------|---------|---------|-----------|------------|
    
    E|--3-----0---|----------2-|-------3---5-|--3--2--5-|
    B|----------2-|--3---------|--5--5---7---|----------|
    G|--------0---|--------2---|-------------|----------|
    D|------------|--4-----0---|-------------|----------|
    A|--4--0------|-----0------|--4----------|----------|
    E|------------|------------|-------------|----------|
    
    E|-3--2--5--|--3--------|--3--------|--3-----0---|----------2-|
    B|----------|--2--0--3--|--2--0--3--|--2-------2-|--3---------|
    G|----------|-----------|-----------|--------0---|--------2---|
    D|----------|--2--0--4--|--2--0--4--|--2---------|--4-----0---|
    A|----------|--0--------|--0--------|--0--0------|-----0------|
    E|----------|-----------|-----------|------------|------------|
    
    E|--0-------3-|-2--2-5-3-7-|--5--------|-------------|
    B|------------|----3---5---|--7--------|-------------|
    G|--------2---|------------|-----------|-----------0-|
    D|------------|-0----------|--0-----2--|--0--0-4-2---|
    A|--4--0--4---|------------|-----4-----|-----2---4---|
    E|------------|------------|-----------|-------------|
    
    E|--7--6--9--|--7----------|----------|------------|--0-----2-|
    B|--0--------|-------3---5-|--3-------|------0---1-|-----4----|
    G|-----3--6--|--4--4---5---|--4-------|----0---2---|--0-------|
    D|--4--------|-----5---7---|--5--4--7-|-5--2---4---|--2--1--4-|
    A|--5--------|-------------|----------|------------|--2-------|
    E|-----------|-------------|--3--2--5-|-3----------|----------|
    
    E|--0--0---2-0-|--3-0--------|--3-0-------|-3-0-------|
    B|-------4-----|------2------|------2-----|-----2-----|
    G|-------------|--------3-2--|--------3-2-|-------3-2-|
    D|--2----------|----------2--|----------2-|---------2-|
    A|-------------|----------4--|----------4-|---------4-|
    E|-------------|-------------|------------|-----------|
    
    E|--3-0--------|----------5--|----------10--|--------------|
    B|------2------|--------3-7--|----------8---|--------------|
    G|--------3-2--|------2---7--|--------0-7---|--2-----------|
    D|----------2--|--0-4-----0--|------0---9---|----4---4---4-|
    A|----------4--|-------------|----2---------|--0---5---0---|
    E|-------------|-------------|--3-----------|--------------|
    
    E|--^-^-^-^-^-^-^-^-^---^-^---|-------5--|--3--2--2--|--2------|
    B|-5-7-5-7-5-7-5-7-5-7-3-5-3--|----------|-----------|-------7-|
    G|-0--------------------------|----------|-----------|---------|
    D|----------------------------|--0-------|--------2--|--0------|
    A|---------7-------0----------|----------|--------1--|--2------|
    E|----------------------------|----------|-----------|---------|
    
    E|--8--7--7-|-7--------|--5--------|--3----2-|
    B|----------|-------5--|--------0--|---------|
    G|----------|----------|--------0--|---------|
    D|--------7-|----6--5--|-----4-----|-------0-|
    A|--------6-|----5--4--|-----3--2--|--4----2-|
    E|----------|----------|-----------|--5------|
    
    E|--^-^-^-^-^-^-^-^-^---^-^--|
    B|-5-7-5-7-5-7-5-7-5-7-3-5-3-|
    G|-0-------------------------|
    D|---------------------------|
    A|---------7-------0---------|
    E|---------------------------|
    
    E|----------|-----------|--2-------|--------6--|-----5--4-|
    B|-3--------|--------6--|----------|--------5--|-----4--3-|
    G|-------2--|--------4--|--3-------|--5h-4--4--|--4-------|
    D|----0-----|--5h-4--4--|--4----4--|-----------|--------2-|
    A|----------|-----------|----------|-----------|----------|
    E|----------|-----------|----------|-----------|----------|
    
    E|----3--2--|--7------|--3------|--------2-5--|--------3-7-|
    B|----2--3--|---------|--2------|------3---3--|------3-----|
    G|-2--------|--7------|--2------|----2-----2--|----4-----7-|
    D|-------0--|--5------|---------|--4-------4--|--5-------5-|
    A|----------|---------|---------|-------------|----------5-|
    E|----------|---------|---------|-------------|------------|
    
    E|----------10-|---------10--|----10---10---10-|
    B|--------3----|---------8---|--7----7----7----|
    G|------2---7--|-------0-7---|-----------------|
    D|----4--------|-----0---9---|------------0----|
    A|--5-------9--|---2---------|--0--------------|
    E|-------------|-3-----------|-----------------|
    
    E|----10---10---10-|----9---9---9-|---9---9---9-|--10------|
    B|--7----7----7----|--5---5---5---|-5---5---5---|----------|
    G|-----------------|--0---0-------|-------------|--11------|
    D|------------7----|--------------|-------------|--0-----4-|
    A|--9--------------|----------7---|---------0---|----------|
    E|-----------------|--------------|-9---9-------|--------2-|
    
    E|-----------|-----------|----------|-------9--|-10-|
    B|-----------|-----------|----------|-------10-|-10-|
    G|-----------|-----------|----------|-------9--|-11-|
    D|--5--6--7--|--8--9--6--|--7----7--|----------|-0--|
    A|-----------|-----------|----------|--5----0--|----|
    E|--3--4--5--|--6--7--4--|--5----5--|----------|----|
    
    E|--------^-^-^--|---------|-3-----2-|-2-0-------|------^-^-^--|
    B|-0-----1-0-1-0-|-3-----3-|-5-----3-|---1-----3-|-0---1-0-1-0-|
    G|-0-----2-------|-4-----4-|---------|---------4-|-0---2-------|
    D|---------------|---------|---------|-----------|-------------|
    A|---------------|---------|---------|-----------|-------------|
    E|-3--3--3-------|-3--3--3-|-3--3--3-|---3--3--3-|-3-3-3-------|
    
    E|---------|-0-------|-^---------|--------------|--------------|
    B|-3-----3-|-1-----3-|3-1-----0--|----------0---|----------1---|
    G|-4-----4-|-------4-|--2-----0--|----0---0---0-|----2-1-2---2-|
    D|---------|---------|-----------|--0---4-------|--2-----------|
    A|---------|---------|-----------|--2-----------|--3-----------|
    E|-3--3--3-|-3--3--3-|--3--3--3--|--------------|--------------|
    
    E|-------------|----------0---|----------8----|--7-----------|
    B|---0---0-3-0-|----1-0-1---1-|--3-------10---|--8-------3---|
    G|-----3-------|--0-----------|---------------|--0-------4---|
    D|-4-----------|--2-----------|----0---0----0-|----0---0---0-|
    A|-5-----------|--------------|------4---9----|------4-------|
    E|-------------|--------------|--2------------|----------3---|
    
    E|----------2---|-3-----------|--------------|------0-----|
    B|--1-------1---|-0-------0---|--1---0---1-0-|--3-1-------|
    G|--2-----------|---------0---|----1---2-----|---------0--|
    D|----0---0---0-|---0---0---0-|--2-----------|------------|
    A|--0---4---0---|-2---4---2---|--3-----------|---------3--|
    E|--------------|-------------|--------------|------------|
    
    E|-----------|-----------|----------|----------|-----------|
    B|-----------|-----0-----|----------|----------|-----------|
    G|-----5-----|--0-----0--|-----2----|----0-----|-----------|
    D|--4-----4--|--2-----2--|--2-----2-|-0-----0--|--0--4--0--|
    A|--5-----5--|-----------|--3-----3-|-2-----2--|--0-----0--|
    E|-----------|-----------|----------|----------|-----------|
    
    E|-----------|--------------|----------0---|-2-----------|
    B|-----------|--------------|------1-----1-|-1-----------|
    G|-----0--2--|--4-------2---|----0---0-----|-2-0---0-2---|
    D|-----------|--3-5-4-5---5-|--2-----------|-----4-----4-|
    A|--2--------|--5-----------|--------------|-------------|
    E|--3--------|--3-----------|--3-----------|-3-----------|
    
    E|--3-7-3-------|--------------|----------0---|--2-----------|
    B|--------3-----|--------------|------1-----1-|--1-----------|
    G|----------4---|--4-------2---|----0---0-----|--2-0---0-2---|
    D|------------5-|--3-5-4-5---5-|--2-----------|------4-----4-|
    A|--------------|--5-----------|--------------|--------------|
    E|--3-----------|--3-----------|--3-----------|--3-----------|
    
    E|-3-5-7-3-2---|--0-----------|--------------|--------------|
    B|-----------4-|----------3---|--3---1---0---|--0-------0---|
    G|-------------|----0---0---0-|----0---0---0-|----0-2-----0-|
    D|-------------|------4---0---|--2---2---0---|------4-5-0---|
    A|-------------|--3-----------|--------------|--3-----------|
    E|-3-----------|--------------|--------------|--------------|
    
    E|--------------|-------------|--------------|-----10--10--|
    B|--3---1---0---|-0-------0---|--3---1---0---|-------------|
    G|----0---0---0-|---0-2-----0-|----0---0---0-|--2--11--11--|
    D|--2---4---0---|-----4-5-0---|--2---4-------|--4----------|
    A|--------------|-3-----------|----------4---|--5--12--9---|
    E|--------------|-------------|--------------|-------------|
    
    E|--10------|--5--4--7--|--5--4--7-|-------0--|--------0--|
    B|----------|-----------|----------|-3--2-----|--3--2-----|
    G|--11------|-----------|----------|-------0--|--------0--|
    D|----------|-----------|----------|-4--2-----|--4--2-----|
    A|----------|-----------|----------|-0--------|--0--------|
    E|--10------|-----------|----------|----------|-----------|
    
    E|--------2---|--3-----0---|----------2-|-------3---5-|
    B|--3-------3-|----------2-|--3---------|--5--5---7---|
    G|------------|--------0---|--------2---|-------------|
    D|--4-----0---|------------|--4-----0---|-------------|
    A|--0--0------|--4--0------|-----0------|--4----------|
    E|------------|------------|------------|-------------|
    
    E|-3--2--5--|--3--2--5--|--3--------|--3--------|--3-----0---|
    B|----------|-----------|--2--0--3--|--2--0--3--|--2-------2-|
    G|----------|-----------|-----------|-----------|--------0---|
    D|----------|-----------|--2--0--4--|--2--0--4--|--2---------|
    A|----------|-----------|--0--------|--0--------|--0--0------|
    E|----------|-----------|-----------|-----------|------------|
    
    E|----------2-|-0-------3-|--2--2-5-3-7-|--5--------|
    B|--3---------|-----------|-----3---5---|--7--------|
    G|--------2---|-------2---|-------------|-----------|
    D|--4-----0---|-----------|--0----------|--0--------|
    A|-----0------|-4--0--4---|-------------|-----4--7--|
    E|------------|-----------|-------------|-----------|
    
    E|-------------|--7--6--9--|-7----------|---------|------------|
    B|-------------|--0--------|------3---5-|-3-------|------0---1-|
    G|-----------0-|-----3--6--|-4--4---5---|-4-------|----0---2---|
    D|--0--0-4-2---|--4--------|----5---7---|-5--4--7-|-5--2---4---|
    A|-----2---4---|--5--------|------------|---------|------------|
    E|-------------|-----------|------------|-3--2--5-|-3----------|
    
    E|--0-----2--|--0--0---2-0-|--3-0--------|--3-0-------|
    B|-----4-----|-------4-----|------2------|------2-----|
    G|--0--------|-------------|--------3-2--|--------3-2-|
    D|--2--1--4--|--2----------|----------2--|----------2-|
    A|--2--------|-------------|----------4--|----------4-|
    E|-----------|-------------|-------------|------------|
    
    E|-3-0--------|--3-0--------|----------5--|----------10--|
    B|-----2------|------2------|--------3-7--|----------8---|
    G|-------3-2--|--------3-2--|------2---7--|--------0-7---|
    D|---------2--|----------2--|--0-4-----4--|------0---9---|
    A|---------4--|----------4--|-------------|----2---------|
    E|------------|-------------|-------------|--3-----------|
    
    E|-------------|--^-^-^-^-^-^-^-^-^---^-^--|------5-|-3--2--2--|
    B|-------------|-5-7-5-7-5-7-5-7-5-7-3-5-3-|--------|----------|
    G|-2-----------|-0-------------------------|--------|----------|
    D|---4---4---4-|---------------------------|-0------|-------2--|
    A|-0---5---0---|---------7-------0---------|--------|-------1--|
    E|-------------|---------------------------|--------|----------|
    
    E|--2------|-8--7--7--|--7--------|--5--------|--3----2-|
    B|-------7-|----------|--------5--|--------0--|---------|
    G|---------|----------|-----------|--------0--|---------|
    D|--0------|-------7--|-----6--5--|-----4-----|-------0-|
    A|--2------|-------6--|-----5--4--|-----3--2--|--4----2-|
    E|---------|----------|-----------|-----------|--5------|
    
    E|--^-^-^-^-^-^-^-^-^---^-^---|-----------|-----------|-2------|
    B|-5-7-5-7-5-7-5-7-5-7-3-5-3--|--3--------|--------6--|--------|
    G|-0--------------------------|--------2--|--------4--|-3------|
    D|----------------------------|-----0-----|--5h-4--4--|-4----4-|
    A|---------7-------0----------|-----------|-----------|--------|
    E|----------------------------|-----------|-----------|--------|
    
    E|-------6--|-----5--4--|-----3--2--|--7----|--3--|--------2-5-|
    B|-------5--|-----4--3--|-----2--3--|-------|--2--|------3---3-|
    G|-5h-4--4--|--4--------|--2--------|--7----|--2--|----2-----2-|
    D|----------|--------2--|--------0--|--5----|-----|--4-------4-|
    A|----------|-----------|-----------|-------|-----|------------|
    E|----------|-----------|-----------|-------|-----|------------|
    
    E|-------3-7--|----------10--|----------10--|----10---10---10-|
    B|-----3------|--------3-----|----------8---|--7----7----7----|
    G|---4-----7--|------2---7---|--------0-7---|-----------------|
    D|-5-------5--|----4---------|------0---9---|------------0----|
    A|------------|--5-------9---|----2---------|--0--------------|
    E|------------|--------------|--3-----------|-----------------|
    
    E|----10---10---10-|---9---9---9-|----9---9---9-|--10-------|
    B|--7----7----7----|-5---5---5---|--5---5---5---|-----------|
    G|-----------------|-0---0-------|--------------|--11-------|
    D|------------7----|-------------|--------------|--0-----4--|
    A|--9--------------|---------7---|----------0---|-----------|
    E|-----------------|-------------|--9---9-------|--------2--|
    
    E|-----------|-----------|---------|------9---|--10------|
    B|-----------|-----------|---------|------10--|--10------|
    G|-----------|-----------|---------|------9---|--11------|
    D|--5--6--7--|--8--9--6--|--7----7-|----------|--0-------|
    A|-----------|-----------|---------|-5----0---|----------|
    E|--3--4--5--|--6--7--4--|--5----5-|----------|----------|
    
    E|-----------|-----------|-----------|--------5-|
    B|-----3--3--|--3-----6--|-----3--3--|--3-------|
    G|--2--------|-----2-----|--2--------|-----2----|
    D|--3--------|-----3--3--|--3--------|-----3--3-|
    A|--5--------|-----5--5--|--5--------|-----5--5-|
    E|-----------|-----------|-----------|----------|
    
    E|----10-13-7-10-|----7---4-----|--------------|--------------|
    B|-0-------------|--9---6---3-6-|----3---------|--------------|
    G|---------------|--------------|--4-----4-----|--------------|
    D|-6-------------|--------------|------6---3-6-|----3---0-----|
    A|-8-------------|--------------|--------------|--5---2-----2-|
    E|-10------------|--------------|--------------|----------4---|
    
    E|----------|----------|-----------|-----------|-----5-8------|
    B|----------|----------|-----------|--------5--|--1------7-10-|
    G|--2-------|-------2--|-----2--2--|--2--------|--2-----------|
    D|--2--2--2-|-2--------|--2--------|-----2--2--|--4-----------|
    A|--3-------|----3--3--|--3--------|-----3--3--|--------------|
    E|----------|----------|-----------|-----------|--------------|
    
    E|---------------|------7-----|-------------|---------12-------|
    B|--4-7----------|-0--8-----8-|---5---------|------11-------11-|
    G|------5-8------|--------9---|-4-----4---0-|------------12----|
    D|----------7-10-|-5----------|-----5---2---|--8---------------|
    A|---------------|-7----------|-------------|--10--------------|
    E|---------------|------------|-------------|--12--------------|
    
    E|--------------|--------------|--------------|--------------|
    B|----8---5-----|--------------|--------------|--4-------0---|
    G|--9---5-----5-|----3---0-----|--------------|--------------|
    D|----------8---|--5---2-----2-|----5-4-5-4-2-|----------1---|
    A|--------------|----------3---|--1-----------|----2-1-2---2-|
    E|--------------|--------------|--------------|--------------|
    
    E|--------------|--------------|--0-------3---|----7-6-7---7-|
    B|--1-------2---|--3-------4---|----------5---|--7-------0---|
    G|--------------|----------2---|--0-----------|--8-----------|
    D|--2-------2---|--4-------4---|--------------|--------------|
    A|----2-1-2---2-|----2-1-2---2-|----2-1-2---2-|----------6---|
    E|--------------|--------------|--------------|--7-------7---|
    
    E|----7-6-7---7-|----7-6-7---7-|-----7-6-7---7-|----7-6-7-6-7-|
    B|--------------|--------------|-----------8---|--7-----------|
    G|--5-------6---|--7-------8---|--9------------|--------------|
    D|--------------|--------------|---------------|--------------|
    A|--7-------7---|--9-------9---|--10-------7---|--6-----------|
    E|--7-------7---|--7-------7---|--7--------7---|--7-----------|
    
    E|-8-5---0---|-8-5---0---|-3---------|-3---------|-------------|
    B|-----7---4-|-----7---4-|---5-------|---5-------|-0-----------|
    G|---------5-|---------5-|-----5-4-3-|-----5-4-3-|---0---0---0-|
    D|---------4-|---------4-|---------5-|---------5-|-----2-------|
    A|-----------|-----------|---------7-|---------7-|-2-------2---|
    E|-----------|-----------|-----------|-----------|-------------|
    
    E|-2-3-2-3-2-3-2-3-2-3-0-2-|-0-------|-----------|-----------|
    B|-------------------------|---------|-----------|-----------|
    G|---------2---------------|-0----0--|--1--2--3--|--4--5--3--|
    D|-------------------------|-2-------|-----------|-----------|
    A|-2---------------2-------|---------|-----------|-----------|
    E|-------------------------|------3--|--4--5--6--|--7--8--6--|
    
    E|---------|------11--|--12-------|-------9--|--10-------|
    B|-------0-|------10--|--8--------|-------8--|-----------|
    G|--4------|------11--|--9-----2--|-------9--|--10----0--|
    D|---------|-2----9---|-----------|--0----7--|--0--------|
    A|-------2-|----------|--------0--|-------0--|-----------|
    E|--7------|-0--------|--12-------|----------|--------3--|
    
    E|-------7--|--8-------|----------|----------|-----------|
    B|--1----6--|--5----4--|--5-------|----------|-----------|
    G|-------7--|--5-------|-----4--5-|-1--2-----|--0--------|
    D|-------5--|----------|----------|-------2--|-----------|
    A|--3-------|----------|----------|----------|-----3--3--|
    E|----------|--8-------|----------|----------|-----5--5--|
    
    E|--------2--|--3--------|-----------|----------|
    B|-----------|-----4--5--|-----------|----------|
    G|-----------|-----------|--4--5-----|--4-------|
    D|--4--------|-----------|--------5--|----------|
    A|--3--3--2--|--2--------|-----------|-----2--2-|
    E|--5--5--5--|--0--------|-----------|-----2--2-|
    
    E|----------|-----------|-----------|-----3--4--|--5-----3-|
    B|----------|-----------|-----------|-----5--6--|--5--5----|
    G|-2-----2--|--4-----0--|-----------|-----------|--------3-|
    D|----------|-----4-----|--1--2-----|--0--------|-----2----|
    A|-2--2-----|-----------|--------2--|-----------|--4-------|
    E|-2--2-----|-----------|-----------|-----------|----------|
    
    E|-2--------|-----------|----------|
    B|----3--2--|--3--2--3--|----------|
    G|-2--------|-----------|--2-------|
    D|-0--------|-----------|--4-------|
    A|----------|-----------|-----5--4-|
    E|----------|-----------|----------|
    
    E|-h-p-h-p-h-p-h-p-h---h--|----5--4--|--5--4--5--|--3-----6-|
    B|-^-^-^-^-^-^-^-^-^---^--|----------|-----------|----------|
    G|3-5-3-5-3-5-3-5-3-5-2-3-|-2--------|-----------|----------|
    D|0-----------------------|-4--------|-----------|-----5--4-|
    A|------------------------|-5--------|-----------|-----6--5-|
    E|------------------------|----------|-----------|----------|
    
    E|Трель-----|----------2-3-|--4-5-6-7-8-9-|--10-|
    B|--^-------|--3-4-5-6-----|--------------|-----|
    G|-6-7------|--------------|--------------|-----|
    D|-5--4--5--|--4-----------|--------------|-----|
    A|-6--5--6--|--5-----------|--------------|-----|
    E|----------|--------------|--------------|-----|…
  • Размер: 4/4
    Темп: Allegro
    
    E|--3---------------3---------------|3-------3---7---10-|
    B|--------------3---------------3---|----3--------------|
    G|-*4---------------0---------------|0-------0---4---7--|
    D|-*------------0---------------0---|----0--------------|
    A|--5-------------------------------|-------------------|
    E|--3-------------------------------|-------------------|
    
    E|-8-----------5---8-----------5---|8---5---2---5-----|
    B|---------------------------------|----------------3-|
    G|-5-----------2---5-----------2---|5---2-------2-----|
    D|---------------------------------|--------4-------0-|
    A|---------------------------------|------------------|
    E|---------------------------------|------------------|
    
    E|-3-------3-----------7---5---3-|--------------------5--8-----|
    B|-3---3---3---3---3---3---3---3-|8---7---7-----------7--7---7-|
    G|-4---4---4---4---4---4---4---4-|5---5---5---5---5---5--5---5-|
    D|-5---5---5---5---5---5---5---5-|5---5---5---5---5---5--5---5-|
    A|-------------------------------|-----------------------------|
    E|-------------------------------|-----------------------------|
    
    E|-5---3---3-----------7---5---3-|--------------------5--8-----|
    B|-3---3---3---3---3---3---3---3-|8---7---7-----------7--7---7-|
    G|-4---4---4---4---4---4---4---4-|5---5---5---5---5---5--5---5-|
    D|-5---5---5---5---5---5---5---5-|5---5---5---5---5---5--5---5-|
    A|-------------------------------|-----------------------------|
    E|-------------------------------|-----------------------------|
    
    E|-3---3---3-2-0-2-3---3---7-5---5-|7---7---10---------10-|
    B|-0-------1-------3-----------8---|8---------13-12-13-12-|
    G|-------------------------5-------|--------11------------|
    D|---------------------------------|----------------------|
    A|---------0-------2-------5-------|7-------9----------10-|
    E|-3-------------------------------|----------------------|
    
    E|---------------------------------|--------------------------|
    B|-3---------------5---------------|3---1---1-------1---0---0-|
    G|-4---------------5---------------|4---2---2-------2---0---0-|
    D|---------------------------------|0---------------2---------|
    A|---------------------------------|--------------------------|
    E|---------------------------------|--------------------------|
    
    E|---------------------------------|------------------|
    B|-0-------------------------------|------------------|
    G|-0---2---2-----------------------|0-------2-------4-|
    D|-----2---2-------5---4---2---4---|0-------4-------5-|
    A|-3---------------5---------------|2-------5---------|
    E|---------------------------------|------------------|
    
    E|------------------------------|------------------------------|
    B|-3---------------5------------|3---1---1---1---1---0---0---0-|
    G|-4---------------5------------|4---2---2---2---2---0---0---0-|
    D|------------------------------|0---------------2-------------|
    A|------------------------------|------------------------------|
    E|------------------------------|------------------------------|
    
    E|------------------------------|------------------------------|
    B|-0----------------------------|------------------------------|
    G|-0---2---2---2----------------|------------------------2-----|
    D|-----2---2---2---5---4---2--4-|5-------------------4-5-----5-|
    A|-3---------------5------------|------------------------------|
    E|------------------------------|3---3---3---3---3---3---3---3-|
    
    E|------------------------------|------------------------------|
    B|------------------------------|3---3---3---3---5---5---7---7-|
    G|-4-------------------2-4-5--2-|4---4---4---4---5---5---5---5-|
    D|------------------------------|------------------------------|
    A|------------------------------|------------------------------|
    E|-3---3---3---3---3---3---3--3-|3---3---3---3---3---3---3---3-|
    
    E|-3---3---5---5---7---7---9--9-|10--------------9-------9-----|
    B|-3---3---3---3---3---3---8--8-|------------10--------8-----8-|
    G|------------------------------|11--11--11--11--9---9---9---9-|
    D|------------------------------|0---0---0---0---0---0---0---0-|
    A|------------------------------|------------------------------|
    E|-3---3---2---2---3---3---0--0-|------------------------------|
    
    E|-10--------------9-------9-----|10--10----10------10------10-|
    B|-------------10--------8-----8-|7---7-----7-------7-------7--|
    G|-11--11--11--11--9---9---9---9-|-----------------------------|
    D|-0---0---0---0---0---0---0---0-|0-------------0--------------|
    A|-------------------------------|----7--9--7-------7---9---7--|
    E|-------------------------------|-----------------------------|
    
    E|-10--10------10------10-----10-|9------10------9------10-----|
    B|-------------------------------|---10------10-----10------10-|
    G|-9---9-------9-------9------9--|9------11------9------11-----|
    D|-----7---9---7-------7---9--6--|-----------------------------|
    A|-10--------------10------------|0--0---0---0---0--0---0---0--|
    E|-------------------------------|-----------------------------|
    
    E|-9-----------------|
    B|-10----------------|
    G|-----2-2-2---2---2-|
    D|-------------------|
    A|-0---0-0-0---0---0-|
    E|-------------------|
    
    E|-5------------320--------7-------|----------------5---------|
    B|-----------------3---------------|8-------5-----------------|
    G|-2-----------------------4-------|9---------------2---------|
    D|-----------------0-------4-------|9-------5-------2---------|
    A|-------------------------6-------|7-------5-------4-------4-|
    E|---------------------------------|------------------------5-|
    
    E|-2-----------------------3----|2---------------0-------------|
    B|--------------5320-------5----|3---------------2-------------|
    G|------------------------------|--------2-------2---1---0-----|
    D|---------2-------0------------|----------------------------2-|
    A|---------1-------2------------|0-----------------------------|
    E|-------------------------3----|------------------------------|
    
    E|----5---5---5---5---5---5---5-|5---5---5---5---5---5---7---9-|
    B|------------------------------|------------------------------|
    G|-2----------------------4-----|0---------------2-------0-----|
    D|-0----------4---0-------4-----|--------2---------------------|
    A|--------4---------------6-----|--------5-------4-------0-----|
    E|--------0-------2-------------|0-----------------------------|
    
    E|-9---10------7---7---5--------|-----------5---10--9----------|
    B|-------------8---8---7------2-|3----------------------12--10-|
    G|-0--------------------------0-|------------------------------|
    D|------------------------------|4--4---5---5---7---7----------|
    A|-----9-----------0-------0----|5--5---7---7---9---9---9---9--|
    E|-7-------0--------------------|-----------------------10--10-|
    
    E|-7---------------------------|----------------10--9----------|
    B|----10----10--10--10--10--10-|12--10------10----------12--10-|
    G|-----------------------------|-------------------------------|
    D|--------------9---9----------|----------------7---7----------|
    A|-7--7--9--9---7---7---9---9--|9---9---10--10--9---9---9---9--|
    E|-9--9--10-10----------7---7--|10--10--12--12----------10--10-|
    
    E|-7----------------------------|----------------7-----------5-|
    B|----10-----10--10--10--10--10-|12--10----------7-------------|
    G|------------------------------|------------------------------|
    D|---------------7---7----------|------------------------------|
    A|-7--7--9---9---9---9---7---7--|9-------9---7---6-------4---6-|
    E|-9--9--10--10----------9---9--|10--10--------------7---------|
    
    E|-3---------------5----------3-|----------------7---9-109---7-|
    B|-5---------------5------------|7---7---8---10--8---101210--8-|
    G|-----0------------------------|7---7---9---11----------------|
    D|---------2---0----------------|----------------0---0---0---0-|
    A|-----------------4---0---2--4-|5---5---7---9-----------------|
    E|-0----------------------------|------------------------------|
    
    E|-7---5-------5---5---3---2--0-|-----------5---10--9----------|
    B|-8---7---7---7---7---5---3--2-|3----------------------12--10-|
    G|---------7------------------0-|------------------------------|
    D|------------------------------|4--4---5---5---7---7----------|
    A|-0---0---0---0---0---0---0--0-|5--5---7---7---9---9---9---9--|
    E|------------------------------|-----------------------10--10-|
    
    E|-7------------------------------|--------------10--9---------|
    B|-----10------10--10--10--10--10-|12--10-----10--------12--10-|
    G|--------------------------------|----------------------------|
    D|-----------------9---9----------|--------------7---7---------|
    A|-7---7---9---9---7---7---9---9--|9---9---10-10-9---9--9---9--|
    E|-9---9---10--10----------7---7--|10--10--12-12--------10--10-|
    
    E|-7----------------------------|----------------7-----------5-|
    B|-----10------10-10-10--10--10-|12--10----------7-------------|
    G|------------------------------|------------------------------|
    D|----------------7--7----------|------------------------------|
    A|-7---7---9---9--9--9---7---7--|9-------9---7---6-------4---6-|
    E|-9---9---10--10--------9---9--|10--10--------------7---------|
    
    E|-3--------------5-----------3-|----------------7---9-109---7-|
    B|-5--------------5-------------|7---7---8---10--8---101210--8-|
    G|-----0------------------------|7---7---9---11----------------|
    D|---------2---0----------------|----------------0---0---0---0-|
    A|----------------4---0---2---4-|5---5---7---9-----------------|
    E|-0----------------------------|------------------------------|
    
    E|-7---5-------5---5---3---2---0-|-----------------------------|
    B|-8---7---7---7---7---5---3---2-|3----------------------------|
    G|---------7-------------------0-|---2--4--6--7---7---9119-7-9-|
    D|-------------------------------|0----------------------------|
    A|-0---0---0---0---0---0---0---0-|---0--2--4--5---5---7--------|
    E|-------------------------------|-----------------------------|
    
    E|---------------------------------|--------------------------|
    B|---------------------------------|--------------------------|
    G|-11-6--7--9--11-11-12-14-12-11-12|14--14--15-16-15-13-15-16-|
    D|---------------------------------|--------------------------|
    A|-9--4--5--7--9--9--10------------|12--12--13-------------14-|
    E|---------------------------------|--------------------------|
    
    E|-------------0-----------------|--------2--------------------|
    B|-0---------------3---2---0-----|3---------------3------------|
    G|-0---------------0-----------2-|--------2------------------*-|
    D|-2---------------2-------------|4-------0-------4----------*-|
    A|-----------------0-------------|5---------------5------------|
    E|-0-----------------------------|-----------------------------|
    
    E|---------------------------------|-------------2---5-|
    B|-3---------------3---------------|-3-------3---------|
    G|-------------2---------------2---|-----2-----------2-|
    D|-0---------------0---------------|-0-------0---4-----|
    A|-------------0---------------0---|-----0-------------|
    E|---------------------------------|-------------------|
    
    E|-5-----------2---5-----------2---|-5---2-------------|
    B|---------------------------------|---------4---7---0-|
    G|-2---------------2---------------|-2-----------------|
    D|-------------4---------------4---|-----4---1---4-----|
    A|---------------------------------|-----------------2-|
    E|---------------------------------|-------------------|
    
    E|-------------3---8---7---5---3-|-5---3-----3---3---3---3---3-|
    B|-------------------------------|-----------------------------|
    G|-------------------------------|-----------------------------|
    D|-2---2---3---3---5---5---2---2-|-0---0--2--2---3---3---0---0-|
    A|-3---3---5---5---7---7---3---3-|-2---2--3--3---5---5---2---2-|
    E|-------------------------------|-----------------------------|
    
    E|-5---3-------3---8---7---5---3-|-5---3-----3---3---3---3---3-|
    B|-------------------------------|-----------------------------|
    G|-------------------------------|-----------------------------|
    D|-0---0---2---2---3---3---0---0-|-2---2--3--3---5---5---2---2-|
    A|-2---2---3---3---5---5---2---2-|-3---3--5--5---7---7---3---3-|
    E|-------------------------------|-----------------------------|
    
    E|-5---3-------3---3---3---3---3-|
    B|-------------------------------|
    G|-------------------------------|
    D|-0---0---2---2---3---3---0---0-|
    A|-2---2---3---3---5---5---2---2-|
    E|-------------------------------|
    
    E|-5---4-------4---4---4---4---4-|-7--5------5---8---6---5-----|
    B|-3---3---5---5---6---6---3---3-|-------3---3---5---5-------8-|
    G|-4---4---5---5---7---7---4---4-|-5--5--4---4---5---5---5---5-|
    D|-------------------------------|-7--7------------------7---7-|
    A|-------------------------------|-0---------------------------|
    E|-0-----------------------------|-----------------------------|
    
    E|-3---2-------2---2---2---2---2-|-5--3----------3---1---------|
    B|-1---1---3---3---4---4---1---1-|-----------4-----------4---3-|
    G|-2---2---3---3---5---5---2---2-|-3--3--2---2---3---3---2---2-|
    D|-0-----------------------------|-1---------------------------|
    A|-------------------------------|-----------------------------|
    E|-------------------------------|-----------------------------|
    
    E|-------------------------------|-0---------------------------|
    B|-3---2-------2---2---2---2---2-|-----3-----------------------|
    G|-3---3---2---2---3---3---2---0-|-----------------------------|
    D|-------------------------------|-4---------0---2---4---5---7-|
    A|-------------------------------|-5---------------------------|
    E|-------------------------------|---------------0---2---3---5-|
    
    E|-------------------------------|-0-------------0---2---3---5-|
    B|-------------------------------|-----3-----3-----------------|
    G|-5---3---------------2---3---6-|-----------------------------|
    D|-------------4---5-------------|-2---0-----------------------|
    A|-3---1---------------0---1---4-|-----------------------------|
    E|-------------2---3-------------|-----------------------------|
    
    E|-6-------7-------8-------9---|-10----------------------------|
    B|-----------------------------|-------------------------------|
    G|-----------------------------|-7---7---7---9---5---5---5---7-|
    D|-----------------------------|-9---9---9---10--7---7---7---9-|
    A|-----------------------------|-------------------------------|
    E|-----------------------------|-------------------------------|
    
    E|-----------------3-2-3-2-3-2-0-2-|
    B|-0---0---0---3---3---------------|
    G|-0---0---0---4-------------------|
    D|-0---------------0---------------|
    A|---------------------------------|
    E|---------------------------------|
    
    E|-3---------------3---------------|3-------3---7---10-|
    B|-------------3---------------3---|----3--------------|
    G|-4---------------0---------------|0-------0---4---7--|
    D|-------------0---------------0---|----0--------------|
    A|-5-------------------------------|-------------------|
    E|-3-------------------------------|-------------------|
    
    E|-8-----------5---8-----------5---|8---5---2---5-----|
    B|---------------------------------|------------------|
    G|-5-----------2---5-----------2---|5---2-------2---2-|
    D|---------------------------------|--------4---------|
    A|---------------------------------|----------------0-|
    E|---------------------------------|------------------|
    
    E|-3-------3-----------7---5---3-|-------------------5---8-----|
    B|-3---3---3---3---3---3---3---3-|8--7---7-----------7---7---7-|
    G|-4---4---4---4---4---4---4---4-|5--5---5---5---5---5---5---5-|
    D|-5---5---5---5---5---5---5---5-|5--5---5---5---5---5---5---5-|
    A|-------------------------------|-----------------------------|
    E|-------------------------------|-----------------------------|
    
    E|-5---3---3-----------7---5---3-|-------------------5---8-----|
    B|-3---3---3---3---3---3---3---3-|8--7---7-----------7---7---7-|
    G|-4---4---4---4---4---4---4---4-|5--5---5---5---5---5---5---5-|
    D|-5---5---5---5---5---5---5---5-|5--5---5---5---5---5---5---5-|
    A|-------------------------------|-----------------------------|
    E|-------------------------------|-----------------------------|
    
    E|-3---3---3-2-0-2-3---3---7-5---5-|7---7---10---------10-|
    B|-0-------1-------3-----------8---|8---------13-12-13-12-|
    G|-------------------------5-------|--------11------------|
    D|---------------------------------|----------------------|
    A|---------0-------2-------5-------|7-------9----------10-|
    E|-3-------------------------------|----------------------|
    
    E|---------------------------------|--------------------------|
    B|-3---------------5---------------|3---1---1-------1---0---0-|
    G|-4---------------5---------------|4---2---2-------2---0---0-|
    D|---------------------------------|0---------------2---------|
    A|---------------------------------|--------------------------|
    E|---------------------------------|--------------------------|
    
    E|---------------------------------|------------------|
    B|-0-------------------------------|------------------|
    G|-0---2---2-----------------------|0-------2-------4-|
    D|-----2---2-------5---4---2---4---|0-------4-------5-|
    A|-3---------------5---------------|2-------5---------|
    E|---------------------------------|------------------|
    
    E|------------------------------|------------------------------|
    B|-3---------------5------------|3---1---1---1---1---0---0---0-|
    G|-4---------------5------------|4---2---2---2---2---0---0---0-|
    D|------------------------------|0---------------2-------------|
    A|------------------------------|------------------------------|
    E|------------------------------|------------------------------|
    
    E|------------------------------|------------------------------|
    B|-0----------------------------|------------------------------|
    G|-0---2---2---2----------------|------------------------2-----|
    D|-----2---2---2---5---4---2--4-|5-------------------4-5-----5-|
    A|-3---------------5------------|------------------------------|
    E|------------------------------|3---3---3---3---3---3---3---3-|
    
    E|------------------------------|------------------------------|
    B|------------------------------|3---3---3---3---5---5---7---7-|
    G|-4-------------------2-4-5--2-|4---4---4---4---5---5---5---5-|
    D|------------------------------|------------------------------|
    A|------------------------------|------------------------------|
    E|-3---3---3---3---3---3---3--3-|3---3---3---3---3---3---3---3-|
    
    E|-3---3---5---5---7---7---9--9-|10--------------9-------9-----|
    B|-3---3---3---3---3---3---8--8-|------------10--------8-----8-|
    G|------------------------------|11--11--11--11--9---9---9---9-|
    D|------------------------------|0---0---0---0---0---0---0---0-|
    A|------------------------------|------------------------------|
    E|-3---3---2---2---3---3---0--0-|------------------------------|
    
    E|-10--------------9-------9-----|
    B|-------------10--------8-----8-|
    G|-11--11--11--11--9---9---9---9-|
    D|-0---0---0---0---0---0---0---0-|
    A|-------------------------------|
    E|-------------------------------|
    
    E|-10------9-------10------9-------|-10----------------|
    B|-----10------10------10------10--|-----3-3-3---3---3-|
    G|-11------9-------11------9-------|-11----------------|
    D|-0---0---0---0---0---0---0---0---|-0---0-0-0---0---0-|
    A|---------------------------------|-------------------|
    E|---------------------------------|-------------------|
    
    E|---------------------------------|---------------------------|
    B|-3----------1-0----------5-------|-1---------------3---------|
    G|---------------2-0---------------|-2-------2-----------------|
    D|-0-----------------------2-------|-2---------------0-------0-|
    A|-------------------------2-------|-0-------3-------0---------|
    E|-----------------3-------4-------|---------3-------2---------|
    
    E|-7-----------532-0-------8---|-7---------------5-------------|
    B|-------------------------10--|-8---------------7-------------|
    G|-----------------0-----------|---------7-------7---6---5-----|
    D|---------7-------2-----------|-0---------------------------7-|
    A|---------6-------------------|-------------------------------|
    E|-------------------------8---|-------------------------------|
    
    E|-----10--10--10--10-10-10-10-|-10--10--10--10--10--8---5-----|
    B|---------11------8-----------|---------8-------7-----------7-|
    G|-----------------------9-----|-----------------7-------5-----|
    D|-12--------------------------|-10------7---------------------|
    A|-10------0-------------11----|-0-----------------------5-----|
    E|-----------------7-----------|-------------------------------|
    
    E|-0-----------0---0-----------|-----------------3---2---0-----|
    B|-7---8-------1---1---3--3----|-------------3---------------3-|
    G|---------------------4--4----|-0-----------------------------|
    D|-----------------0---------4-|-----------------0---0---------|
    A|---------0--------------5----|-2---2---3---3---2---2---2---2-|
    E|-0---------------------------|-3---3---5---5-----------3---3-|
    
    E|-0-----------------------------|-0-------------3---2---0-----|
    B|-----3-------3---3---3---3---3-|-----3-----3---------------3-|
    G|-------------------------------|-----------------------------|
    D|-------------------------------|---------------0---0---------|
    A|-0---0---2---2---3---3---0---0-|-2---2--3--3---2---2---2---2-|
    E|-2---2---3---3---5---5---2---2-|-3---3--5--5-----------3---3-|
    
    E|-0-----------------------------|-0-------------0-------------|
    B|-----3-------3---3---3---3---3-|-----3---------0-----------3-|
    G|-------------------------------|-----------------------------|
    D|-------------------------------|-----------------------------|
    A|-0---0---2---2---3---3---0---0-|-2------2--0-----------------|
    E|-2---2---3---3---5---5---2---2-|-3---3---------4---0---2---4-|
    
    E|-------------------------------|-----------------------------|
    B|-1---------------3-----------1-|--------------------8--------|
    G|-2---------------2-------------|-4--4--5--7---9---11--11--9--|
    D|---------------------0---------|-5--5--7--9---10----------10-|
    A|-0---3---0---------------------|-----------------------------|
    E|-------------3---2-------0---2-|-3--3--5--7---8---8---8---8--|
    
    E|-0-----------------------------|---------------3---2---0-----|
    B|-1---3---0---3---3---1---0-----|-----------3---------------3-|
    G|-----4---0---4---4---2---0---2-|-0---------------------------|
    D|-0---0---0---0---0---0---0---4-|---------------0---0---------|
    A|-----------------------------5-|-2--2--3---3---2---2---2---2-|
    E|-------------------------------|-3--3--5---5-----------3---3-|
    
    E|-0-----------------------------|-0-------------3---2---0-----|
    B|-----3-------3---3---3---3---3-|-----3-----3---------------3-|
    G|-------------------------------|-----------------------------|
    D|-------------------------------|-----------------------------|
    A|-0---0---2---2---3---3---0---0-|-2---2--3--3---2---2---2---2-|
    E|-2---2---3---3---5---5---2---2-|-3---3--5--5-----------3---3-|
    
    E|-0-----------------------------|-0-------------0-------------|
    B|-----3-------3---3---3---3---3-|-----3---------0-----------3-|
    G|-------------------------------|-----------------------------|
    D|-------------------------------|-----------------------------|
    A|-0---0---2---2---3---3---0---0-|-2------2--0-----------------|
    E|-2---2---3---3---5---5---2---2-|-3---3---------4---0---2---4-|
    
    E|-------------------------------|-----------------------------|
    B|-1---------------3-----------1-|--------------------8--------|
    G|-2---------------2-------------|-4--4--5--7---9---11--11--9--|
    D|---------------------0---------|-5--5--7--9---10----------10-|
    A|-0---3---0---------------------|-----------------------------|
    E|-------------3---2-------0---2-|-3--3--5--7---8---8---8---8--|
    
    E|-----3---7---10--10-------------|-3--------------------------|
    B|-3---3---8---12--10--13--12--10-|----------------------------|
    G|-4---4---7---12--11--11--11--11-|----------------------------|
    D|-0---0---0---0---0---0---0---0--|----0--2--4--5--5---797-5-7-|
    A|--------------------------------|----------------------------|
    E|--------------------------------|-3-----0--2--3--3---5-------|
    
    E|---------------------------------|-------------------|
    B|---------------------------------|-------------------|
    G|-----------------4---4---575-4-5-|-7---7---898-6-8-9-|
    D|-9---4---5---7-------------------|-------------------|
    A|-----------------2---2---3-------|-5---5---6-------7-|
    E|-7---2---3---5-------------------|-------------------|
    
    E|-----------5---3---2---0-----|-------------------------------|
    B|-5-------------------------3-|-3---------------3-------------|
    G|-2-------------2-------0-----|-4---6---5---4-------6---5---4-|
    D|-2-------------0-------------|-------------------------------|
    A|-3---------------------------|-------------------------------|
    E|-----------------------------|-3-----------------------------|
    
    E|-----------5---3---2---0-----|-------------3-------0---2---3-|
    B|-5-------------------------3-|-3---5---7-------3-------------|
    G|-2-------------2-------0-----|-4---------------4-------------|
    D|-2-------------0-------------|-----------------5-------------|
    A|-3---------------------------|-------------------------------|
    E|-----------------------------|-3-----------------------------|
    
    E|-5---------------10----------|-3-----------------------------|
    B|-5---------------10----------|-------------3---------------3-|
    G|-----------------11----------|-----------------4-------4-----|
    D|-----------------0-----------|---------------------5---------|
    A|-3---------------------------|-------------------------------|
    E|-----------------------------|-3---3---3---3---3---3---3---3-|
    
    E|-3-------3---7----------2----|-3-----------------------------|
    B|-----3------------------3----|-------------3---------------3-|
    G|----------------*7*-----2----|-----------------4-------4-----|
    D|------------------------0--0-|---------------------5---------|
    A|-----------------------------|-------------------------------|
    E|-3---3---3---3---3---3-------|-3---3---3---3---3---3---3---3-|
    
    E|-3-------3---7----------2----|-3---------------3-------------|
    B|-----3------------------3----|-0---------------3-------3-----|
    G|----------------*7*-----2----|-0-----------0---4-----------4-|
    D|------------------------0--0-|---------0-----------5---------|
    A|-----------------------------|-----2-------------------------|
    E|-3---3---3---3---3---3-------|-3-----------------------------|
    
    E|-3-----------------|
    B|-0-----------------|
    G|-0-------0-----0-0-|
    D|-------------------|
    A|-------------------|
    E|-3-------3-----3-3-|…
  • E|---------------------------------|
    B|---------------------------------|
    G|---------------------------------|
    D|------4---4---4-------4---4---4--|
    A|------0---0---0-------0---0---0--|
    D|--0--(0)-(0)-(0)--0--(0)-(0)-(0)-|
    
    E||------------------2--(2)-(2)------|
    B||--3--(3)-(3)--------------------3-|
    G|*--------------2-------------------|
    D|*------4---4-----------4---4---4---|
    A||------0---0-----------0---0---0---|
    D||--0--(0)-(0)-(0)--0--(0)-(0)-(0)--|
    
    E|--5-----------------------3-2-0---|
    B|--------------------------------3-|
    G|----------------------------------|
    D|------4---4---4-------4---4---4---|
    A|------0---0---0-------0---0---0---|
    D|--0--(0)-(0)-(0)--0--(0)-(0)-(0)--|
    
    E|----------0----------------------|
    B|--4------------------------------|
    G|------0---0---0-------0---0---0--|
    D|------2---2---2-------2---2---2--|
    A|--0--(0)-(0)-(0)--0--(0)-(0)-(0)-|
    D|---------------------------------|
    
    E|--------------------------0--(0)-|
    B|------------------2--(2)---------|
    G|--2--(2)-(2)-(2)------0---0---0--|
    D|------5---5---5-------2---2---2--|
    A|--0--(0)-(0)-(0)--0--(0)-(0)-(0)-|
    D|---------------------------------|
    
    E|--3--(3)-(3)-(3)-(3)--7---5---3--|
    B|---------------------------------|
    G|------0---0---0-------0---0---0--|
    D|------2---2---2------------------|
    A|--0---------------0--(0)-(0)-(0)-|
    D|---------------------------------|
    
    E|------2---2----------------------|
    B|--6------------------------------|
    G|------2---2---2------------------|
    D|------4---4---4-------4---4---4--|
    A|----------------------0---0---0--|
    D|--0--(0)-(0)-(0)--0--(0)-(0)-(0)-|
    
    E|--5--(5)-(5)-(5)-----------------|
    B|------3---3---3-------3---3---3--|
    G|------5---5---5-------5---5---5--|
    D|---------------------------------|
    A|---------------------------------|
    D|--4--(4)-(4)-(4)--4--(4)-(4)-(4)-|
    
    E|---------------------------------|
    B|------3---3---3-------3---3---3--|
    G|------4---4---4-------4---4---4--|
    D|------------------5--(5)-(5)-(5)-|
    A|--0------------------------------|
    D|------5---5----------------------|
    
    E|--7--(7)-(7)-(7)----------------|
    B|------6---6---6-------6---6---6-|
    G|------7---7---7-------7---7---7-|
    D|--------------------------------|
    A|--------------------------------|
    D|--6--(6)-(6)-(6)--6--(6)-(6)--6-|
    
    E|----------5--(5)-(5)-(5)--3-2-----|
    B|------------------------------5-3-|
    G|------2---2---2-------2---2---2---|
    D|------4---4---4-------4---4---4---|
    A|--0--(0)-(0)-(0)--0--(0)-(0)-(0)--|
    D|----------------------------------|
    
    E|----------------------------------||
    B|--2--(2)-(2)-(2)-(2)-(2)-(2)--0-2-||
    G|------0---0---0-------0---0---0---*|
    D|------2---2---2-------2---2---2---*|
    A|--0--(0)-(0)-(0)--0--(0)-(0)-(0)--||
    D|----------------------------------||
    
    E|------------------------------2---|
    B|--3-----------------------------3-|
    G|----------------------------------|
    D|--4-------------------------------|
    A|----------------------------------|
    D|--0-------------------------------|
    
    E|--5-------5-------5-------5-------|
    B|------2---2---2-------2---2---2---|
    G|------0---0---0-------0---0---0---|
    D|----------------------------------|
    A|--0--(0)-(0)-(0)--0--(0)-(0)-(0-)-|
    D|----------------------------------|
    
    E|--5------10---------------2-------|
    B|----------7---------------3-----3-|
    G|----------------------------------|
    D|------0---0---0-------4---4---4---|
    A|----------------------------------|
    D|--0--(0)-(0)-(0)--0--(0)-(0)-(0)--|
    
    E|--5-------5-------5-------3---2-0-|
    B|------2---2---2-------2-------2---|
    G|------0---0---0-------0-------0---|
    D|----------------------------------|
    A|--0--(0)-(0)-(0)--0--(0)-(0)-(0)--|
    D|----------------------------------|
    
    E|------------------5-|-10-|
    B|--3---------------7-|--7-|
    G|--------------------|----|
    D|--4---------------0-|----|
    A|--------------------|----|
    D|--0-----------------|--0-|…
  • -|------------------------------12----------------19-17-16-17-19-17-15-17-20-|
    -|12----------13----15-13-12-13-------18-17-16-17----------------------------|
    -|---14-13-14----------------------------------------------------------------|
    -|---------------------------------------------------------------------------|
    -|---------------------------------------------------------------------------|
    -|---------------------------------------------------------------------------|…
  • |-----------|----------------------|---------5-h-9--7-p-5--|-4-h-7--12-p-11-|
    |-----------|--------5-h-9--7-p-5--|--4-h-7----------------|----------------|
    |-----------|----------------------|-----------------------|----------------|
    |--9-p-7----|-6-h-9----------------|-----------------------|----------------|
    |-----------|----------------------|-----------------------|----------------|
    |-----------|----------------------|-----------------------|----------------|
    
    
    -12-p-9--|-7-h-8--9-p-7--|-5-h-7--5-p-4---------|--------------------------|
    ---------|---------------|---------------7-p-5--|--4-h-5--4-p-2------------|
    ---------|---------------|----------------------|----------------4-p-2-----|
    ---------|---------------|----------------------|--------------------------|
    ---------|---------------|----------------------|--------------------------|
    ---------|---------------|----------------------|--------------------------|
    
    
    |--------0-h-4--5-p-2--|-------4h5p4--------|-------5---5h7p5--------------|
    |----------------------|--5-----------7--5--|----7-------------9--7--------|
    |-1-h-4----------------|--------------------|-8----------------------------|
    |----------------------|--------------------|------------------------------|
    |----------------------|--------------------|------------------------------|
    |----------------------|--------------------|------------------------------|…
  • E||----------------5---8------3x-------------------------|E
        B||------5-8---------8---8--6h8p6-5----------------------|B
        G||----5-----4-575---------------------------------------|G
        D||------------------------------------------------------|D…
  • |----------------------------|----------------------------|----------------|
    |----------------------------|----------------------------|----------------|
    |----------------------------|-3--3--3--3--3--3--5p3p2h3--|-----5-5-----3-3|
    |-1--1--1--1--1--1--3p1p0h1--|----------------------------|-5-5-----3-3----|
    |----------------------------|----------------------------|----------------|
    |----------------------------|----------------------------|----------------|
    
    
    |------------------|----------------------------|--------------------------|
    |------------------|----------------------------|-4--4--4--4--4--4--6p4p3h4|
    |-----5-5-----3-3--|-3--3--3--3--3--3--5p3p2h3--|--------------------------|
    |-5-5-----3-3------|----------------------------|--------------------------|
    |------------------|----------------------------|--------------------------|
    |------------------|----------------------------|--------------------------|
    
    
    |-----3-3-----1-1-|-----3-3-----1-1--|----6--5---|-4p3---------------------|
    |-3-3-----1-1-----|-3-3-----1-1------|-3---------|-------------------------|
    |-----------------|------------------|-----------|-------------------------|
    |-----------------|------------------|-----------|-------------------------|
    |-----------------|------------------|-----------|-------------------------|
    |-----------------|------------------|-----------|-------------------------|
    
    
    |-------------------|----------|-------------------|-----------------------|
    |-6---4--3----------|-------4--|-3-----------------|-----------------------|
    |-----------5--3----|----3-----|----5--3-----------|-----------------------|
    |-----------------6-|-5--------|----------6--5--3--|-----------------------|
    |-------------------|----------|-------------------|-6---------------------|
    |-------------------|----------|-------------------|-----------------------|
    
    
    Tremolo…
Наверх