Аккорды «Wyclef Jean»

Wyclef Jean
Нелуст Вайклеф Джaн родился 17 октября 1969 года в Круа-де-Буке на Гаити. Когда ему исполнилось 9 лет, он с семьёй переехал в Нью-Йорк, а затем в Нью-Джерси, где он начал играть на гитаре и изучать джаз. В 1987 году Вайклеф, его двоюродный брат Праказрел Мишел (Prakazrel Michel, Pras) и его одноклассница Лорин Хилл (Lauryn Hill) создают хип-хоп-группу The Tranzlator Crew, позже переменованную в Fugees. Fugees добились мировой известности со своим культовым альбомом The Score и стали одной из… Читать полностью... Нелуст Вайклеф Джaн родился 17 октября 1969 года в Круа-де-Буке на Гаити. Когда ему исполнилось 9 лет, он с семьёй переехал в Нью-Йорк, а затем в Нью-Джерси, где он начал играть на гитаре и изучать джаз. В 1987 году Вайклеф, его двоюродный брат Праказрел Мишел (Prakazrel Michel, Pras) и его одноклассница Лорин Хилл (Lauryn Hill) создают хип-хоп-группу The Tranzlator Crew, позже переменованную в Fugees. Fugees добились мировой известности со своим культовым альбомом The Score и стали одной из самых влиятельных групп 1990-х. В 1997 году вместе с выходом альбома The Carnival (Presents the Carnival Featuring the Refugee Allstars) началась сольная карьера Вайклефа. В записи альбома участвовали коллеги Вайклефа по творческому объединению вокруг группы Fugees (Refugee Camp All Stars, или Refugee Allstars): Прас и Лорин Хилл, сестра Мелхи Джин (Melky Sedeck — дуэт сестры Мелхи Джин [Melky] и брата Седека Джина [Sedeck]), I Threes, певшие на бэк-вокале у Боба Марли (Bob Marley), The Neville Brothers и Селия Круз (Celia Cruz). Альбом стал настоящим хитом, также, как и два выпущенных сингла: We Trying To Stay Alive (кавер-версия Stayin’ Alive группы Bee Gees) и Gone Till November, записанный с Нью-Йоркским филармоническим оркестром (New York Philharmonic Orchestra). Вайклеф Джан был номинирован как лучший хип-хоп-исполнитель в 2000 году на Европейской музыкальной премии MTV. В 2005 году его номинировали на Золотой Глобус за песню Million Voices, вошедшую в саундтрек к фильму «Отель Руанда». Дискография: Presents the Carnival Featuring the Refugee Allstars (1997) The Ecleftic: 2 Sides II a Book (2000) Masquerade (2002) The Preacher’s Son (2003) Greatest Hits (2003) Welcome to Haiti: Creole 101 (2004) CARNIVAL VOL. II…Memoirs of an Immigrant (2007). Скрыть...
Популярные аккорды Wyclef Jean:
алфавиту | просмотрам | случайно
  • e|-----------0---------|-------0--|-----------|----------0-----------------|
    B|-5/7-10-7----2-0-----|----------|-------3-2-|-5/7-10-7---2-0-------------|
    G|-----------------2---|-----0----|-----2-----|----------------2-----------|
    D|---------------------|---2------|---0-------|----------------------------|
    A|---------------------|-3--------|-2---------|----------------------------|
    E|---------------------|----------|-----------|----------------------------|
    
    e|-------0--|-----------|-------0------------------------------------------|
    B|----------|-------3---|-------2------------------------------------------|
    G|-----0----|-----2-----|-----2--------------------------------------------|
    D|---2------|---0-------|---2----------------------------------------------|
    A|-3--------|-2---------|-0------------------------------------------------|
    E|----------|-----------|--------------------------------------------------|…
  • 1  +   2  +  3  +  4  +   1  +  2  +  3  +  4  +
      em                        hm
    |-------------------------|-------------------------|
    |------5/12-10------------|----------3--------------|
    |--------------12-11-12-9-|-------4-----------------|
    |-------------------------|----4--------------------|
    |-------------------------|-2-----------------------|
    |-0-----------------------|-------------------------|…
  • The chords are:
    
    C  [010230]
    Am [012200]
    F  [112330]
    G  [334553]
    
    Simply repeat these four chords throughout the song. The solo might be slightly different.
    
    
    Verse (1)
    
    C                  Am                F…
  • Heard this song on Chappelle's Show and like it.
    The bass has a pretty sweet part, but here's the guitar chords.
    
       Em    G    Am    C (play 1st string open on first stum of chord)
    E--0-----3----0----(3)-------------------------------------------
    B--0-----0----1-----1--------------------------------------------
    G--0-----0----2-----0--------------------------------------------
    D--2-----0----2-----2--------------------------------------------
    A--2-----2----0-----3--------------------------------------------
    E--0-----3-------------------------------------------------------
    
    xxxxxxxxxxxxxxx
    End…
  • The Tabs below is continued with a few changes in the CHORUS
                 *The 1. Chorus starts here
    e:-----------0------------0---------------0--------------0---
    B:---------0---0--------0---0-------2-3-----3--2-2-3---0---0-
    G:-1-1-2-4-------2-2-4-1------3/4-4-----4------------4-------
    D:-----------------------------------------------------------
    A:-----------------------------------------------------------
    E:-----------------------------------------------------------
    
    e:-------------0-------------0-------------0-----------------
    B:-------2-3-----3--2-2----0---0---------0---0---------------
    G:-3/4-4-----4-----------4-------2-2-4-1-------1-1-0---------
    D:---------------------------------------------------2-------
    A:-----------------------------------------------------------
    E:-----------------------------------------------------------
    
    3/4…
  • Вступление:
    
    e:------------3-3-3-3-3-3-3-3-------------3-3-3-3-3-3-3-3--
    B:------------3-3-3-3-3-3-3-3-------------3-3-3-3-3-3-3-3--
    G:------------0-0-0-0-0-0-0-0----0--------0-0-0-0-0-0-0-0--
    D:--------2---2-2-2-2-2-2-2-2------2/0-0--0-0-0-0-0-0-0-0--
    A:--0/2----------------------------------------------------
    E:-3-------------------------------------------------------
    
    
    e:-------------3-3-3-3-3-3-3-3-------------3-3-3-3-3-3-3-3-
    B:-------------3-3-3-3-3-3-3-3-------------3-3-3-3-3-3-3-3-
    G:-------------0-0-0-0-0-0-0-0----0--------0-0-0-0-0-0-0-0-
    D:---------2---2-2-2-2-2-2-2-2------2/0-0--0-0-0-0-0-0-0-0-
    A:---0/2---------------------------------------------------
    E:-3-------------------------------------------------------
    
    
    e:-------------3-3-3-3-3-3-3-3-------------3-3-3-3-3-3-3-3-
    B:-------------3-3-3-3-3-3-3-3-------------3-3-3-3-3-3-3-3-
    G:-------------0-0-0-0-0-0-0-0-------------0-0-0-0-0-0-0-0-
    D:----------2--2-2-2-2-2-2-2-2--2-0--------0-0-0-0-0-0-0-0-
    A:----0/2----------------------------2/0-0-----------------
    E:--3------------------------------------------------------
    
    
    e:------------3-3-3-3-3-3-3-3-------------3-3-3-3-3-3-3-3--
    B:------------3-3-3-3-3-3-3-3-------------3-3-3-3-3-3-3-3--
    G:------------0-0-0-0-0-0-0-0-------------0-0-0-0-0-0-0-0--
    D:--------2---2-2-2-2-2-2-2-2--2-0--------0-0-0-0-0-0-0-0--
    A:--0/2-----------------------------2/0-0------------------
    E:-3-------------------------------------------------------…
  • e--------------------------------------------------------------------
    b--------------------------------------------------------------------
    g--------------------------------------------------------------------
    d--------------------------------------------------------------------
    a--3-3-3-3-3-3-3-3--0-0-0-0-0-0-0-0----------------------------------
    E------------------------------------1-1-1-1-1-1-1-1--3-3-3-3-3-3-3-3
    
    Thats…
Наверх