Аккорды «Yngwie Malmsteen»

Yngwie Malmsteen
Ингви Мальмстин (англ. Yngwie Malmsteen, урождённый Ларс Юхан Ингве Лaннербэк швед. Lars Johan Yngve Lannerback, 30 июня 1963, Стокгольм, Швеция) — шведско-американский гитарист-виртуоз, мульти-инструменталист и композитор, один из основоположников нео-классик металла. Ингви — один из самых известных гитаристов в мире, его постоянно включают в списки «лучших гитаристов всех времён». Ларс Юхан Ингве Мальмстен родился 30 июня 1963 года в Стокгольме, Швеция, в семье военного и актрисы. Почти сразу… Читать полностью... Ингви Мальмстин (англ. Yngwie Malmsteen, урождённый Ларс Юхан Ингве Лaннербэк швед. Lars Johan Yngve Lannerback, 30 июня 1963, Стокгольм, Швеция) — шведско-американский гитарист-виртуоз, мульти-инструменталист и композитор, один из основоположников нео-классик металла. Ингви — один из самых известных гитаристов в мире, его постоянно включают в списки «лучших гитаристов всех времён». Ларс Юхан Ингве Мальмстен родился 30 июня 1963 года в Стокгольме, Швеция, в семье военного и актрисы. Почти сразу после его рождения его родители развелись. В одиннадцать лет он официально сменил фамилию отца на девичью фамилию матери Мальмстен. Шведская фамилия Malmsten (malm — «руда», sten — «камень») была американизирована впоследствии в Malmsteen, а имя Yngve в Yngwie. С детства он увлекался творчеством Антонио Вивальди, Никколо Паганини и Джими Хендрикса и, по утверждению самого музыканта, начал играть на гитаре раньше, чем ходить. В возрасте семи лет он увидел по телевизору похороны Джими Хендрикса и сказал: «В тот день, когда умер Джими Хендрикс, родился гитарист Мальмстин». Впоследствии на его манеру игры оказал большое влияние гитарист известной хард-рок группы Deep Purple Ричи Блэкмор. В 1976 году Ингви Мальмстин организовал свою первую группу Powerhouse, а в 1978 году — Rising Force. Название группы возникло под влиянием второго альбома Rainbow «Rising», выпущенного в 1976 году и на тот момент являвшегося его любимым альбомом. Вместе с Rising Force он записывает первые демо, которые случайно попадают в руки американскому «искателю талантов» в области хард-рока Майку Верни, и в 1983 году Ингви Мальмстин вошёл в состав лос-анджелесской группы Steeler, которую возглавлял Рон Килл. Несмотря на великолепный подбор музыкантов, группа записала один студийный альбом и вскоре распалась, и Ингви Мальмстин вместе с Грэмом Боннетом, бывшим вокалистом Rainbow создал Alcatrazz. С этой группой гитарист записал два альбома, но вскоре покинул и её и стал готовить материал для сольного альбома. В процессе записи сейшнмены приняли предложение Ингви Мальмстина стать членами его группы — так возродились Rising Force. Партию бас-гитары играл сам Ингви Мальмстин. Кроме него в группу вошли: Барримор Барлоу — ударные; Йенс Юханссон — клавишные; Джефф Скотт Сото — вокал. Позже пришёл бас-гитарист Марсель Якоб. Дебютный альбом сразу же вошёл в Тор 60 американского хит-парада и получил премию «Грэмми» как лучший инструментальный диск года. Сам же Ингви становится открытием года в ряде изданий, а затем и гитаристом года, после провозглашения альбома Rising Force альбомом года. В 1985 году появляется альбом Marching Out, в ноябре Ингви отправляется в турне по Америке. Рок-пресса называет его гением гитары и в течение двух следующих лет он был лучшим гитаристом в мире по опросу журнала «Guitar Player». Но подлинная слава приходит к Ингви Мальмстину после выпуска третьего альбома «Trilogy» — несмотря на явно коммерческое звучание, эта пластинка может считаться одной из лучших в дискографии гитариста. К тому времени в группе уже пел другой солист Марк Боалз из Ted Nugent. Альбом «Trilogy» получил очень широкое признание и достиг сорок четвёртой позиции в Billboard США. Многие отмечают и на редкость удачные тексты, которые являются прекрасным дополнением к его музыке. 22 июня 1987 года в средствах массовой информации появляются сообщения о том, что автомобиль Jaguar, за рулём которого сидел музыкант, потерпел аварию. В результате неё Ингви пролежал в коме почти неделю, а когда пришёл в себя, то узнал, что из-за травмы головы образовался тромб, который давит на нерв, идущий к правой руке. 18 месяцев он не мог играть и почти полтора года усилий потребовалось, чтобы вернуться в мир музыки. Затем он узнает, что на родине, в Швеции, умерла от рака его мать. Удары судьбы завершились на сообщении о таинственном исчезновении менеджера гитариста вместе с деньгами группы. Альбом «Odyssey» выходит почти полностью на деньги банка, взятые под проценты. Альбом приобретает золотой статус в США, а видео на композицию «Heaven Tonight» не сходит с экранов телевизоров. Вокальные партии на альбоме исполнил Joe Lynn Turner, известный по работам с группой Rainbow. В январе 1989 года Ингви приезжает в Советский Союз и дает 20 концертов за полгода до знаменитого концерта Moscow Peace Festival в Лужниках. Записывается фильм и альбом «Live in Leningrad: Trial By Fire». Альбом получил очень противоречивые рецензии, а группу покинул Joe Lynn Turner. Через неделю от группы Ингви Мальмстина остался только он один и название. После выпуска альбома «Eclipse»(с англ. «Затмение») лейбл звукозаписи Polygram разрывает с Мальмстином договор о сотрудничестве, мотивируя разочарованиями от продаж альбома в США. В Европе и Японии дела обстояли несколько иначе. И хотя альбом не попал в чарты, но заработал статус платинового и золотого. В начале марта 1991 года Ингви заключает договор с лейблом звукозаписи Elektra Records и записывает альбом «Fire and ice» (c англ. Огонь и лёд). В первый же день выхода альбом раскупили в количестве 100 000 штук. В Европе и Японии, как и «Eclipse», «Fire and ice» достиг золотой и платиновой отметок. Началась череда неприятностей. В августе 1992 года ураган Эндрю прошёлся по Майами, принеся значительные разрушения. Сильно пострадал и дом музыканта. В январе 1993 года Nigel Thomas, продюсер Ингви Мальмстина, с которым он работал последние 4 года, умирает от сердечного приступа. В марте Elektra требует от музыканта новых работ, а потом и вовсе разрывает с Ингви контракт, в июле Ингви ломает несчастливую правую руку, а в августе его арестовали по подозрению в убийстве. Через месяц все обвинения против него были сняты, а в октябре он начинает усиленно лечить правую руку. Японский лейбл звукозаписи Pony Canyon подписывает с Ингви договор. Для записи нового альбома набираются новые музыканты. Ими стали новый солист Michael Vescera (ex-Loudness), ударник Mike Terrana (ex-Tony McAlpine), клавишник Mats Olausson. Партии бас-гитары Ингви перелагает на себя. Для турне Ингви нанимает бас-гитариста Барри Спаркса. 18 февраля 1994 года в Японии выходит седьмой по счёту студийный альбом «The Seventh Sign». Здесь он возвращается к истокам своего творчества. Многие критики сравнивают альбом с альбомом 1985 года Marching Out. «The Seventh Sign» быстро достигает первого места в международных чартах и становится платиновым в Японии. CMC International Records покупает права на продажу альбома на территории Европы и Азии и начинает активно заниматься промоушеном альбома. Турне в поддержку альбома началось в марте, а закончилось в ноябре 1994 года. Через месяц Мальмстин оборудовал студию в Майами и принялся писать материал для следующего альбома, который увидел свет в июне 1995 года. Альбом автор нарекает «Magnum Opus» или «Грандиозное творение». В сентябре 1995 года группа снова уехала в четырёхмесячные гастроли. Во время гастролей случился казус: Michael Vescera заболел бронхитом и пропустил 5 концертов. Во время этих выступлений Ингви берёт на себя ещё и роль вокалиста. В конце 1995 года группа возвратилась в США и уже в начале января 1996 года Ингви собирает в своей Studio 308 Joe Lynn Turner, Jeff Scott Soto, David Rosenthal, Marcel Jacob и Mark Boals для работы над новым проектом, идею которого он вынашивал долгие годы: записать песни, на которых вырос гитарист, а это песни знаменитых Deep Purple, Rainbow, U.K., Kansas, Scorpions, Rush и Jimi Hendrix. Так в середине апреля появляется альбом «Inspiration», обложку к которому оформил японский художник Asari Yoda. Состав группы для турне был следующим: Mats Olausson клавишные, Barry Dunaway бас-гитарист Mark Boals, ударник Tommy Aldridge, игравший с Ozzy Osbourne, Whitesnake и Pat Travers Band. Гастроли по Южной Америке имели большой успех. Поклонники скупали билеты пачками. Турне закончилось в декабре 1996 года. Скопировано с Dark-World.ru. Ингви вернулся в Майами и снова закрылся в студии. Новый альбом стал полностью альбомом классической музыки и назывался «Concerto Suite for Electric Guitar and Orchestra in Eb minor, Op. 1». В июне 1997 года Ингви прилетает в Прагу, чтобы в течение трех дней записать свой альбом с Czech Philharmonic Orchestra. Три дня работы с дирижёром Yoel Levi и мечта Ингви стала реальностью. Альбом вышел только в 1998 году, не разочаровав поклонников. Но Ингви решил не останавливаться на достигнутом и в 1998 году издал свой студийный альбом «Facing the Animal», в котором принял участие знаменитый ударник Кози Пауэлл, для которого он оказался последней работой. Альбом получил очень высокие отзывы критиков и фэнов, был признан лучшей работой Ингви за последние годы. 6 марта 1998 года Ингви становится отцом. Сына назвали Antonio Yngwie Johann Malmsteen. Однако Ингви и его жена Эйприл недолго сидели в Майами с малышом, так как график турне был расписан на многие недели вперед. И малыш получил свой первый в жизни паспорт трех недель от роду. К счастью, ребенок спокойно переносил все перелеты и переезды, что дает основание считать, что у Ингви растет достойная смена. Однако, в турне не обошлось и без неприятностей. В дорожной катастрофе погибает Cozy Powell. Ингви был потрясен этим событием, однако снова берет себя в руки и нанимает Jonas Ostman в качестве ударника для турне. Турне прошло по Японии, Южной Америке, Европе и Великобритании. Во время аншлагового концерта в Бразилии был записан концертник и видеофильм с простым названием «Yngwie Malmsteen LIVE!!». К глубокому сожалению фэнов, турне по США и Канаде пришлось отменить из-за плохой рекламы и низкого интереса звукозаписывающих компаний, которых больше интересовала сделка по продаже Mercury/Polygram компании Seagram. Ингви возвращается в Майами и полностью отдается новой для себя роли отца. Кто-то скажет, что он стал почивать на лаврах, а кто-то скажет, что Маэстро обдумывал очередную гениальную идею. Так оно и получилось. В 1999 году Ингви выпускает альбом «Alchemy», а в 2000-м — «War To End All Wars» под старым лейблом Canyon International. Что касается его последней работы, то она очень спорная, и абсолютно местами не похожа на его предыдущие альбомы. Что-то он приобрел в звуке, что-то потерял. А последний трек в стиле «неоклассик-рэгги» заставит улыбнуться даже матерого металлиста и поклонника Ингви. С 2000 по 2008 годы Ингви возраждает свою первую группу Rising Force и записывает с ней ещё 3 альбома: «Attack» (2002)!!- напичканный не только неоклассическим материалом но и примесями из харда и хеви, «Unleash the Fury» (2005)- представляет из себя что то нечто подобное (на вокале последних участвовал небезызвестный Дуги Уайт), «Perpetual Flame» (2008) состоящий полностью из неоклассического материала (на вокал был приглашён Тим Оуэнс). В 2009 году выходит акустическо-инструментальный альбом «Angels Of Love», что для самого музыканта было в новинку. Далее в 2010 году последовал альбом под маркой самого Ингви, названный «Relentless» записанный с тем же Оуэнсом. Конец 2012года ознаменовался выходом альбома Spellbound - тур в поддержку которого был назначен на апрель-июнь 2013. Концертный тур в поддержку альбома Spellbound охватывает самые популярные американские площадки, и также включает в себя выступления в Канаде, Чехии, Дубае, и Пуэрто-Рико. Сольная дискография: 1984 - «Rising Force» 1985 - «Marching Out» 1986 - «Trilogy» 1988 - «Odyssey» 1989 - «Trial by Fire: Live in Leningrad» 1990 - «Eclipse» 1991 - «The Yngwie Malmsteen Collection» 1992 - «Fire and Ice» 1994 - «The Seventh Sign» 1994 - «Power And Glory» 1994 - «I Cant Wait» 1995 - «Magnum Opus» 1996 - «Inspiration» 1997 - «Facing the Animal» 1998 - «Concerto Suite for Electric Guitar and Orchestra in Em, Opus 1» 1998 - «Double LIVE!» 1999 - «Alchemy» 2000 - «Anthology 1994—1999» 2000 - «The Best Of: 1990—1999» 2000 - «War to End All Wars» 2002 - «Concerto Suite LIVE With the New Japan Philharmonic» 2002 - «Attack!!» 2002 - «The Genesis» 2004 - «Oujya Ressou — Instrumental Best Album» 2004 - «G3: Rockin’ in the Free World» 2005 - «Unleash the Fury» 2008 - «Perpetual Flame» 2009 - «Angels Of Love» 2009 - «High Impact» 2010 - «Relentless» 2012 - «Spellbound» Скрыть...
Популярные аккорды Yngwie Malmsteen:
алфавиту | просмотрам | случайно
  • E||---------------------------------------------------------------|
    B||---------------------------------------------------------------|
    G||---------------------------------6-----------------------------|
    D||------------------6-----7-----------------7-----6--------------|
    A||4--4--4--7--4--4-----4-----4--4-----4--4-----4-----4--4--7--4--|
    E||---------------------------------------------------------------|
    
    -----------------------------------------------------------------|
    -----------------------------------------------------------------|
    ---------------------5--8--7--5----------------------------------|
    ---6-----------4--7--------------------------------6-----7-------|
    4-----4--3--6--------------------4--4--4--7--4--4-----4-----4--4-|
    -----------------------------------------------------------------|
    
    ----------------------------------------------------------------|
    ----------------------------------------------------------------|
    6---------------------------------------6h8p6-------------------|
    ---------7-----6-----------------6-------------7--6--4----------|
    ---4--4-----4-----4--4--7--4--4-----4-------------------7--6--5-|
    ----------------------------------------------------------------|
    
    E||---------------------------------------------------------------|
    B||---------------------------------------------------------------|
    G||---------------------------------6-----------------------------|
    D||------------------6-----7-----------------7-----6--------------|
    A||4--4--4--7--4--4-----4-----4--4-----4--4-----4-----4--4--7--4--|
    E||---------------------------------------------------------------|
    
    --------------------------------------------------------------------|
    --------------------------------------------------------------------|
    ---------------------5--8--7--5--7~~~~~~~------------8--11-10-8--10-|
    ---6-----------4--7----------------------------7--10----------------|
    4-----4--3--6----------------------------6--9-----------------------|
    --------------------------------------------------------------------|
    
    -------------------------------------------------------------------|
    -------------------------------------------------------------------|
    ~~~~~~-------------11-14-13-11-13----------------------------------|
    -------------10-13-------------------------------------------------|
    --------9-12-------------------------------------------------------|
    -------------------------------------------------------------------|…
  • E ||---6------------|-----------------|-8---------------|----------------||
    B ||---7------------|-----------------|-8---------------|----------------||
    G ||o--6------------|-----------------|-9---------------|---------------o||
    D…
  • 4/4
    
    Вся тема играется триолями..
    
    e------------------------|
    B---------------12-13-15-|
    G------12-13-15----------|
    D|---------|----------12-13-15-------------------|
    A|---------|-15-14-15----------------------------|
    E------------------------|
    
    
    |-11-13-15-13-11-----------------------|
    -----15-13-12--------------|
    --------------15-13-12-----|
    ---------------------------|
    -----------------------15--|
    ---------------------------|…
  • 1/2
    |--------------------5--7b---|--rb7---5------|----------------------------|
    |-----------------5----------|---------------|----------------------------|
    |--------------5-------------|---------------|----------------------------|
    |-----------7----------------|---------------|----------------------------|
    |--------7-------------------|---------------|----------------------------|
    |---5h8----------------------|---------------|----------------------------|
    
    
    |--------------|-----------------|------------------|---------------------|
    |--------------|-----------------|------------------|---------------------|
    |--------------|-----------------|------------------|-5-------------------|
    |--------------|-----------------|------------------|-5-------------------|
    |--------------|-----------------|-------------12--|-3--5--7--3----------|
    |--5p3--5------|-----------0--3--|--5p3--5---------|------------7-5-3-0--|
    
    
    |---------------------|------------------------|--------------------------|
    |---------------------|------------------------|--------------------------|
    |---------------------|--------|--------------|
    |---------------------|------------------------|--------------------------|
    |---------------------|------------------------|--------------------------|
    |-5p3--5-5-5-5-5-5--3-|------------------------|--------------------------|
    
    
    |-------------------------|------------------------------|-----------------
    |-------------------------|------------------------------|-----------------
    |-------------------------|------------------------------|-----------------
    |----------5--------------|------------------------------|-----------------
    |-3--5--7--3--------------|------------------------------|-----------------
    |-------------7--5--3--0--|-5p3--5--5--5--5--5--5--5--3--|-5--3--5p3--5--5-…
  • |----x--x----------|--------------------------------|---------------------|
    |----x--x----------|--------------------------------|---------------------|
    |------------------|-----4--5~--4p2-----------------|----------|
    |------------------|-----------------5--4--2--1-----|---------------------|
    |------------------|--2--------------------------3--|---------------------|
    |------------x----|--------------------------------|---------------------|
    
    Repeat…
  • Вступление: 
    
    Acoustic Guitar
    
    ----------------4-5-7/8p5-|-----5-8-8/11-11~--10-87--8-10p8p7-
    ----------5p4-5-----------|---6--------------------------------
    ----2-4/5-----------------|-7----------------------------------
    |---2h3p2-0---2------------------------------------------------
    |-0---------0--------------------------------------------------
    ---------------------------------------------------
    
    
    ---------------5-8/12p8----------------------------------------
    --10---10~--5----------10-------------------------------------
    -----9-------|---------5---------------9-10----10--5-4-21-----------------
    -------------|-----2-7----------------------12-------------3-2-------------
    -------------|-0h3---------------------------------------------5-3-2-0-----
    ---------------------------------------------------------------
    
    
    -------------------------------5-8-5------------8-11-12~-------
    -----------------------------5-------7-------10----------------
    ------------1---------2---|----------4-5------------8/11-------------------
    ----------0---------------|----7-6-7---------------------------------------
    --2--3--2-----------------|--8---------------------------------------------
    ---------------------------------------------------------------
    
    
    --12p10p8--------------------|
    ----------10h12p10p9--10-----|
    --------------------------9--|
    -----------------------------|
    -----------------------------|
    -----------------------------|
    Основная…
  • -----------------------------------------------------------------------------
    -----------------------------------------------------------------------------
    -----------------------------------------------------------------------------
    --------------------------------------5--------------------------------------
    ------------3--3-----------5--5--5/7-----7--5-----5--------------------3--3--
    ---5--3--5--------5--3--5----------------------8-----3--2--2--5--3--5--------
    `
    
    -----------------------------------------------------------------------------
    -------------------------------------------------------------8--8------------
    -------------------------------------------------------------7--7------------
    ------------------------5---------------------------------------------------5
    -------------5--5--5/7-----7--5-----5--------5---------------------------5---
    --5--3----5----------------------8-----3--3-----2--2--0--0----------5h7------
    
    
    -----------------------------------------------------------------------------
    ------------------10---8--------------------------8---8----------------------
    -------------------9---7--------------------------7---7----------------------
    -------------------------------------------------------------------5---------
    --5h7-----------------------------------------------------------5-----5h7----
    --------0--0--------------------x--x-----0--0--------------5h7---------------
    
    
    -----------------------------------------------------------------------------
    ----------10--8--------------------------------------------------------------
    -----------9--7--------------------------------------------------------------
    --------------------xps-----------------------------------------------------
    --------------------xps-----------------------------------------------------
    --0--0-----------------------------------------------------------------------
    
    Play…
  • Tablature :
    B = bend
    S = slide
    P = pull-off
    H = hammer-on
    AH = Hamonique artificielle
    T = tapping
    PM = Palm mute
    
    
    Intro
    Guitare 1
                                              S
    ||-----------------------|-----------------------|--------------------|--------
    ||-----------------------|-----------------------|----------------5---|--------
    ||°--2---------2-----5---|--4-2-4--------4-/-7---|--5-4-5-------------|--------
    ||°--------2-2-----------|-----------2-2---------|--------------------|--------
    ||-----------------------|-----------------------|--------------------|--------
    ||-----------------------|-----------------------|--------------------|--------…
  • Intro
      
    
      Gtr III
                ~          ~~~~          ~
    |---^7----|----------|-------------|-----2-3--|-^4----|
    |---^7----|-8---7-5--|-4tr5----2-4-|-5--------|-^5----|
    |---^8----|----------|-------------|----------|-^4----|
    |---------|----------|-4-----------|----------|-------|
    |---^9----|-7--------|---------0---|----------|-------|
    |---------|----------|-------------|-3--------|-^4----|…
  • Riff Intro: 
    
    
    |--------------------------------------------------------------------------|
    |--------------------------------------------------------------------------|
    |-------------------------------------------------------7------7-9----7-9--|
    |--------------6-----6-7---6-7-9-6-7-9-10-7-9-10-7-9-10---9-10-----10------|
    |--5-7-8-5-7-8---7-8-----8-------------------------------------------------|
    |--------------------------------------------------------------------------|
    
    
    |--------------------------------------------------------------------------|
    |--------------------------------------------------------------------------|
    |--10-9-7----9-7------7------------------------------------------7--9~-----|
    |---------10-----10-9---10-9-7-10-9-7-6-9-7-6--------------------7--9~-----|
    |---------------------------------------------8-7~---------------5--7~-----|
    |---------------------------------------------------0-0-0-0-0-0------------|
    
    
    |--------------------------------------------------------------------------|
    |--------------------------------------------------------------------------|
    |-------------------------------------------------------7------7-9----7-9--|
    |--------------6-----6-7---6-7-9-6-7-9-10-7-9-10-7-9-10---9-10-----10------|
    |--5-7-8-5-7-8---7-8-----8-------------------------------------------------|
    |--------------------------------------------------------------------------|
    
    
    |--------------------------------------------------------------------------|
    |--------------------------------------------------------------------------|
    |--10-9-7----9-7------7------------------------------------------7--9~-----|
    |---------10-----10-9---10-9-7-10-9-7-6-9-7-6--------------------7--9~-----|
    |---------------------------------------------8-7~---------------5--7~-----|
    |--------------------------------------------------------0-0-0-------------|
    
    
    
    
    (1)
    |---------------------------------------------------|
    |---------------------------------------------------|
    |----------------------7/9-----------3~-------------|
    |--3-------------------7/9-----------3~----3~-------|
    |--3-2--2-2-2--2--2-2--5/7--2-2-2-2--1~----3~-------|
    |--1-0--0-0-0--0--0-0-------0-0-0-0--------1~-------|
    
    (2)
    |---------------------------------------------------|
    |---------------------------------------------------|
    |----------------------7/9-------------3~-----------|
    |--3-------------------7/9-------------3~----3~-----|
    |--3-2--2-2-2--2--2-2--5/7--2-2-2-2-2--1~----3~-----|
    |--1-0--0-0-0--0--0-0-------0-0-0-0-0--------1~-----|…
  • |-------------|----------------------|--------------------------|--------
    |-------------|----------------------|--------------------------|--------
    |---x--x------|-4--5-----2--4--------|-2------------------------|-4--5---
    |---x--x--2~--|-------2--------2--2--|----2--5--2--4--2-----2~--|-------2
    |-------------|----------------------|-------------------5------|--------
    |-------------|----------------------|--------------------------|--------
    
    
    
    --------------|--------------------------|------------------------------|
    --------------|--------------------------|------------------------------|
    --2--4--------|-2------------------------|-4--5-----2--4----------------|
    --------2--2--|----2--5--2--4--2-----2~--|-------2--------2--2----------|
    --------------|-------------------5------|------------------------------|
    --------------|--------------------------|------------------------------|…
  • Intro:
     
    
     Gtr.1
    |---------------------------------------------------------------------------------------------|
    |---------------------------------------------------------------------------------------------|
    |-----11-12-9-11----9-------------------------------------------------------------------------|
    |--9-------------12---12-11-9-12-11-8-9-11-9~-(9)---------------------------------------------|
    |---------------------------------------------------------------------------------------------|
    |---------------------------------------------------------------------------------------------|…
  • |--------15-20-15----------x-15--------------|--x-11p10-------------------|
    |-----16----------16----16------18bf~--------|-----------11---------------|
    |--17----------------17----------------------|---------------12~----------|
    |--------------------------------------------|----------------------------|
    |--------------------------------------------|----------------------------|
    |--------------------------------------------|----------------------------|
    
    
    |----------------------------------------------------13h15p13p11-13p11-----
    |----------------------------------------------13-14-----------------------
    |----------13h15p13-12----------------12h13h15-----------------------------
    |-12-13-15-------------15-13-12h13h15--------------------------------------
    |--------------------------------------------------------------------------
    |--------------------------------------------------------------------------
    
    
    -----------------------------------------|-----------------------------|---
    --15p13----------------------------------|-15-11-----------------------|---
    -------------12h13p12p10----------10h12--|-------10~--8-10/1210p87---|---
    -------------------------13p12h13--------|---------------------------8/|10-
    ---------11------------------------------|-----------------------------|---
    -----------------------------------------|-----------------------------|---
    
    
    ---------|------------|------10h11p10h11p8h10-10h11p8-------|-------------|
    ---------|------------|---x---------------------------86---|-------------|
    ---------|------------|-----------------------------------8|12-10-10~----|
    ---------|------------|-------------------------------------|-------------|
    ---/10---|------------|-------------------------------------|-------------|
    ---------|---8~~~-----|-------------------------------------|-------------|
    
    
    |----------13h15h16p15p13-11-10-8-6-4-3-1--------------------------------|
    |-13h15h16---------------------------------4-3-1--------------------------|
    |-------------------------------------------------------------------------|
    |-------------------------------------------------------------------------|
    |-------------------------------------------------13/15/17----------------|
    |-------------------------------------------------------------------------|
    
    
    
    slapback…
  • 1/4
    |---xp.s.-----|---3---------2-----------------|-------------2-----------
    |---x---------|---3---------3-----------------|-------------3-----------
    |--------------|---0---------2-----------------|-------------2-----------
    |--------------|---0---------0-----------------|-------------0-----------
    |--------------|-------------0-----2-----------|------2------0--2--2--x--
    |--------------|---3---0--x--------0--0-0-0-0--|--3b--0--x-x----0--0--x--…
  • |----------------------------------------------|---------------------------
    |--17p13-------17-18-17p13--------17p13----12--|-15p12--------15-17-15p12--
    |--------14----------------14-----------14-----|-------12------------------
    |-----------14----------------14---------------|----------12---------------
    |----------------------------------------------|---------------------------
    |----------------------------------------------|---------------------------
    |…
  • |------------------------|------------------------------------------------|
    |------------------------|------------------------------------------------|
    |------------------------|------------------------------------------------|
    |---7/9--9----7/9--9-----|--75---5----5/9---7~---------------------------|
    |---5/7--7----5/7--7-----|--53---3----3/7---5~---------------------------|
    |------------------------|------------------------------------------------|
    
    
    |------------------------|------------------------------------------------|
    |------------------------|------------------------------------------------|
    |------------------------|------------------------------------5--7--------|
    |---7/9--9----7/9--9-----|--75---5----5/9-----------5--7--9--------------|
    |---5/7--7----5/7--7-----|--53---3----3/7--5--7--9-----------------------|
    |------------------------|------------------------------------------------|
    
    
    |------------------------|------------------------------------------------|
    |------------------------|------------------------------------------------|
    |------------------------|------------------------------------------------|
    |---7/9--9----7/9--9-----|--75---5----5/9---7~---------------------------|
    |---5/7--7----5/7--7-----|--53---3----3/7---5~---------------------------|
    |------------------------|------------------------------------------------|…
  • |----------13--10h13p10--------------|------------------------------------|
    |------10---------------10--------10-|-13/15-15~--------------------------|
    |------------------------------10----|-------------12bf---12~-----10------|
    |--12-----------------------12-------|------------------------------------|
    |------------------------------------|------------------------------------|
    |------------------------------------|------------------------------------|…
  • |-------------------10-12----10------------------------------------10-13p10-
    |----------------10-------13----10-8-10-8----8------------------10----------
    |-----------9-10--------------------------10---10h12p10-9----10-------------
    |-----------------------------------------------------12----------------
    |-----------------------------------------------------------------------
    |---------------------------------------------------------------------------
    
    
    ------------|-------------|--------------------------|----------------------
    -10---------|-------------|--------------------------|---------------10h11p10
    ----10p9----|-------------|-------7-9-10-s12-12-10-9-|-10-10-10-9-----------
    ---------12-|-7-----------|-----7--------------------|------------12--------
    ------------|---8-7-8-----|-7h8----------------------|----------------------
    ------------|---------10--|--------------------------|----------------------
    
    
    --------|----------------10--|-s12-------------------|---------------------|
    --------|-------10-11-13-----|-----13-10----10-10-11-|-13-11-10------------|
    -12-10--|-10-12--------------|-----------12----------|---------------------|
    --------|--------------------|-----------------------|---------------------|
    --------|--------------------|-----------------------|---------------------|
    --------|--------------------|-----------------------|---------------------|
    
    
    |-5-6-8p6p5-----5----------------------------|------------5-6-8h10-8-6-5---|
    |-----------8-8---8-6-5-8p6-5-8-6p5-5-5------|----5-5-6-8----------------8-|
    |---------------------------------------6-7--|-7---------------------------|
    |--------------------------------------------|-----------------------------|
    |--------------------------------------------|-----------------------------|
    |--------------------------------------------|-----------------------------|…
  • Rhy Fig.1
    |---0---------|-----------------0--------------------------|----------0--
    |---0---------|-----------0--1-----1--------1p0-----0------|-------------
    |---1----1----|--2--------------------2----------2-----2---|-------2-----
    |---2---------|--------2-----------------------------------|----3--------
    |---2---------|-----0--------------------------------------|-------------
    |---0---------|--------------------------3-----------------|-1-----------
    
    
    
    ----------------0-----------|-----------0--------------------------3-----
    -1--------------------------|-----------------1-----------------3-----3--
    -------1-----1--------1--1--|--------2-----2-----2-----------0-----------
    ----3-----2--------2--------|-----2--------------------------------------
    ----------------------------|--0--------------------3--2-----------------
    ----------------------------|-----------------------------3--------------
    
    
    
    --------|-------0-----------------------4---------------|
    --------|----------1-----------------5--------5---------|
    --0-----|----0--------0-----------4--------5-----4------|End…
  • |----0---2-|---3--2--0-----0--2|-----------------|---------------------|
    |----------|------------4------|-0--2--4--5--3--1|--0------------------|
    |----------|-------------------|-----------------|-----2--0-----0--2---|
    |----------|-------------------|-----------------|-----------4---------|
    |----------|------0-----2--0---|-----------------|-----0-----2--0------|
    |----3---2-|---0---------------|-3--2-----0--2---|--3------------------|
    
    
    
    |------------------0--2|--3--2--0-----0--2|-----------------|-----------
    |0---------------------|-----------4------|-0--2--4--5--3--1|-0---------
    |---2--0---------------|------------------|-----------------|----2--0---
    |---------4--2---------|------------------|-----------------|-----------
    |------2---------------|-----0-----2--0---|-----------------|----3------
    |3-----------0--2--3--2|--0---------------|-3--2-----0--2---|-3---------
    
    
    
    -------------|-------||--------|-------------3----|------------------|
    ----------0--|-------||--0-----|-3-----1--0-----3-|-5--0--3--1--0----|
    -------------|-0----o||o----0--|----2-------------|----------------2-|
    --4h5p4------|-0----o||o-------|----0-------------|-------------0----|
    --5----5-----|-2-----||--------|-------------2----|-3--------0-------|
    -------------|-3-----||--3-----|-2--------3-------|----4-------------|
    
    
    
    |------------------|---------------------|----3-------------|----5----
    |-------0--1--0----|----------------3----|-0-----3--5--0--3-|-1-----5-
    |-1--2-----------2-|-2-----------------2-|------------------|---------
    |-2--------2-------|----------------0----|------------------|---------
    |----0-------------|-0--2--0-------------|----2-----3-------|-0--4----
    |-------------0----|----------3--2-------|-3-----------4----|---------
    
    
    
    -------0-|------------------------|-----------------7---|----------5--
    -7-------|-3--2--0---3h4p3-----0--|-0------------------7|-9--7--5-----
    ----6----|---------------4--------|---------------------|-------------
    ---------|----2-------------------|---------------------|----0--------
    -5-------|-2----------------------|-2--1--2--4---6------|-7--------4--
    ----6----|------------------2-----|-----------------7---|-------------
    
    
    
    -0--3-|-2--0-----3-------|----5-------------|-----------------0------|
    ------|-------3-----3--6-|-5-----5--7--2--5-|-4------------------0---|
    ------|------------------|------------------|----4-------------------|
    ------|-0----------------|------------------|------------------------|
    -0----|----3-----2-------|-3--2-----0-------|-2-----3---2--0---------|
    ------|-------------3----|-------------2----|-----------------4------|
    
    
    
    |------------------------|--------------------|------------------|----||
    |-1-----3-----0-----1----|-------0------------|------------------|---o||
    |----------2-----------0-|-2-----------0------|------------------|----||
    |----2--4--------1--2----|----------4-----4p2-|-1--2--4--5--4--2-|2---||
    |-0----------------------|----4--6-----7--0---|-2--0-----2-------|---o||
    |-------------3----------|-2------------------|------------------|0---||…
  • |------------0--------------|----0--------------0-----|----------0-------
    |---------6--------6--------|-6--------6-----------6--|-------6-------6--
    |---------------7--------7--|-------7--------7--------|------------7-----
    |-----7---------------7-----|-------------7-----------|----8-------------
    |--5------------------------|-------------------------|-5----------------
    |---------------------------|-------------------------|------------------
    
    
    
    --------|----0-----------------0--------|----------0--------------------|
    --------|-6--------6--------6-----6-----|-------6--------6--------------|
    -----7--|-------7--------7-----------7--|-------------7--------7--------|
    --8-----|-------------8-----------------|----7--------------7-----------|
    --------|-------------------------------|-5-----------------------------|
    --------|-------------------------------|-------------------------------|
    
    
    
    |-----0---------------0-----|------------0--------------|----0-----------
    |--6--------6------------6--|---------6--------6--------|-6--------6-----
    |--------7---------7--------|---------------7--------7--|-------7--------
    |---------------7-----------|-----8---------------8-----|-------------8--
    |---------------------------|--5------------------------|----------------
    |---------------------------|---------------------------|----------------…
  • Tune down 1/2 step Eb Ab Db Gb Bb Eb
    
    (no Music) This feels like paradise, We'll be in Heaven Tonight
    
    Fig 1
    
    |-----------------------------|---------------------------|--------------
    |-----------------------------|---------------------------|--------------
    |-9--------9--------9-----7---|----7~------7--7--7--------|-5--------5---
    |-9--------9--------9-----7---|----7~------7--7--7--------|-5--------5---
    |----7-----------7------------|---------------------------|--------------
    |----0--0-----0--------0------|-0------0------------0--0--|----0--0------
    
    
    
    -----------------|-----------------------------|
    -----------------|-------------8--7-----7------|
    -----5-----5--7--|-7--7--------7--7--9--7------|…
  • Tune down 1/2 step - Eb Ab Db Gb Bb Eb
    
    
    Intro  play 2x
       1/2
    |----------------|-----------------|----------------|-------------------|
    |--5b---rb5------|-5b--rb5---------|-3h5--3---------|-----------3-------|
    |----------------|-----------7--5--|----------5--4h5|p4----5------------|
    |----------------|-----------------|----------------|-------------------|
    |----------------|-----------------|----------------|-------------------|
    |----------------|-----------------|----------------|-------------------|
    |…
  • Intro
              1/4
    |-----------------------|--------------|--------------------------------|
    |-----------------------|--------------|--------------------------------|
    |-----------------------|--------------|--------------------------------|
    |-----------------------|--------------|--------------------------------|
    |-----------------------|--------------|--------------------------------|
    |---0--2--5b---2--0--2--|--------------|--0--2--5b--2--0--2-------------|
    
    
    
    |---------------------------------|--------------------|---------x---x--|
    |--17bf--x--17bf--x--17bf--rb17--|--------------------|---------x---x--|
    |---------------------------------|--------------------|----------------|
    |---------------------------------|--------------------|----------------|
    |---------------------------------|--------------------|----------------|
    |---------------------------------|-0--2--5b--2--0--2--|----------------|
    
    
    
    |--------------------|---------------------------------------------------
    |--------------------|-------22p19----------22p19---------22p19----------
    |--------------------|-21bf---------21-21bf-------21-21bf-------21bf-----
    |--------------------|---------------------------------------------------
    |--------------------|---------------------------------------------------
    |-0--2--5b--2--0--2--|---------------------------------------------------
    
    
    
    ------------|--------------------------|--------------------------------|
    --22p19-----|--------------------------|--------------------------------|
    --------21--|--------------------------|----------------|
    ------------|--------------------------|--------------------------------|
    ------------|--------------------------|--------------------------------|
    ------------|-0--2--5b--2--0--2--x--x--|--------------------------------|
    
    
    
    |------------------------------|---------------------------|-------------
    |------------------------------|---------------------------|-------------
    |------------------------------|---------------------------|-------------
    |------------------------2tr4--|---------------------4~----|-------------
    |------------------------------|---------------------------|-------------
    |-0--2--5-5--2--0--2--2--------|--0--2--5b--2--0--2--------|-0--2--5b--2-…
  • E||-----------------------------------|-------------------------------------|
    B||-----------------------------------|-------------------------------------|
    G||*----------------------------------|-------------------------------------|
    D||*------------------6-7---6---------|------------------9-10-7-9-6-7-6-----|
    A||---5-7-----------------8---8-7-5-8-|--5-7----------------------------8-7-|
    E||-------0-0-0-0-0-0-----------------|------0-0-0-0-0-0--------------------|…
  • -------14-----12------10-----9-----12------10----------|---------14---------
    12--------12------12-----12----12------12------14-12-11|-12----------12-----
    ---11--------------------------------------------------|-----11-------------
    -------------------------------------------------------|--------------------
    -------------------------------------------------------|--------------------
    -------------------------------------------------------|--------------------
    
    
    12------10----9--15--14--12----------------|------14----12----10----9----12--
    ----12-----12---------------15--14--12--11-|12-------12----12----12---12-----
    -------------------------------------------|---11----------------------------
    -------------------------------------------|---------------------------------
    -------------------------------------------|---------------------------------
    -------------------------------------------|---------------------------------
    
    
    ---10----------|------14-----12----10----9-15-14-12------------|------------
    12----14-12-11-|12--------12----12----12------------15-14-12-11|-12---------
    ---------------|---11------------------------------------------|-----12-11-9
    ---------------|-----------------------------------------------|------------
    ---------------|-----------------------------------------------|------------
    ---------------|-----------------------------------------------|------------
    
    
    ---------------------------|----------------------------------|-------------
    ---------------------------|----------------------------------|-------------
    ---------------------------|------------4---------4-----------|-------------
    12-11-9-8-9----------------|-9------4---4----4----4-----------|-------------
    ------------10-9-7---------|-9------4---2----4----2-----------|-------------
    -------------------10-9-7-6|-7------2--------2-------------1~-|-------------
    
    
    --2------------14t----------------------------------------------------------
    --2--------14t-----14t-14t--------------------------------------------------
    --4------------------------16t----------------------------------------------
    --4-------------------------------------------------------------------------
    --2-------------------------------------------------------------------------
    ----------------------------------------------------------------------------
    tap…
  • |----------|----------------------|--------------------|-----------------
    |----------|----------------------|--------------------|-----------------
    |----------|-------------5--------|-4------------------|-------9---------
    |----------|-------------7--------|-5--------7~--5--7--|-------7---------
    |----------|-0--0--0--0-----0--0--|----0--0---------0--|-0--0-----0--0---
    |---12----|----------------------|--------------------|-----------------
    
    
    
    -----------|-------------------------|-------------------------|---------
    -----------|-------------------------|-------------------------|---------
    -10--------|-7--------9--------------|-------9--------5--------|-4-------
    --7--------|-7--------7--------------|-------7--------7--------|-5-------
    -----0--0--|----0--0-----0--0--0--0--|-0--0-----0--0-----0--0--|----0--0-
    -----------|-------------------------|-------------------------|---------
    
    
    
    ------------|------------|--------------|----------------------|---------
    ------------|--6--5~-----|--5--3----3---|----------------------|---------
    ------------|--7--5~-----|--5--4----4---|----9--------5--------|-4-------
    --7~--------|--7--5~-----|--5--5----5---|----7--------7--------|-5-------
    ------0--0--|------------|--------------|-0-----0--0-----0--0--|----0--0-
    ------------|------------|--------------|----------------------|---------
    
    
    
    ------------|---------------------------|-------------------------------|
    ------------|---------------------------|-------------------------------|
    ------------|--------9--------10--------|--7--------9-------------------|
    --7~--0h2---|--------7---------7--------|--9--------7-------------------|
    ------0-----|--0--0-----0--0------0--0--|-----0--0-----0--0--0--0-------|
    ------------|---------------------------|-------------------------------|
    
    
    
    |-------------------------|----------------|-------------|--------------|
    |-------------------------|----------------|--6----5~----|--5--3--------|
    |-------9--------5--------|-4--------------|--7----5~----|--5--4--4-----|
    |-------7--------7--------|-5--------7~----|--7----5~----|--5--5--5-----|
    |-0--0-----0--0-----0--0--|----0--0--------|-------------|--------------|
    |-------------------------|----------------|-------------|--------------|
    
    
    
    |-----------------------|-------------------|---------------------------|
    |-----------------------|-------------------|---------------------------|
    |----9--------5---------|-4-----------------|-------9--------10---------|
    |----7--------7---------|-5--------7~--5h7--|-------7---------7---------|
    |-0-----0--0-----0--0---|----0--0-----------|-0--0-----0--0------0--0---|
    |-----------------------|-------------------|---------------------------|
    
    
    
    |-------------------------|-------------------------|-------------------|
    |-------------------------|-------------------------|-------------------|
    |-7--------9--------------|----------------5--------|-4-----------------|
    |-9--------7--------------|-------9--------7--------|-5--------7~--5h7--|
    |----0--0-----0--0--0--0--|-0--0--7--0--0-----0--0--|----0--0-----------|
    |-------------------------|-------------------------|-------------------|
    
    
    
    |---------------|------------------|
    |---6----5------|---5----3----3----|
    |---7----5------|---5----4----4----|
    |---7----5------|---5----5----5----|
    |---------------|------------------|
    |---------------|------------------|
    
    Verses
    
    ||----------------|--------------|------------|--------------------------|
    ||----7-----8-----|---5----------|---7--------|--------------------------|
    ||o---7-----7-----|---6----------|---7--------|--------------------------|
    ||o---9-----9-----|---7----------|---9--------|----9--7------------------|
    ||----------------|--------------|------------|----------10--9--7--------|
    ||----------------|--------------|------------|-7------------------10--9-|
    
    
    
    |----7------------|--------------|-------------|------------------------|
    |----7------8-----|--------------|-------------|------------------------|
    |----7------7-----|--------------|--9----------|---11-------------------|
    |-----------9-----|--------------|--9----------|---11-------------------|
    |-----------------|--------------|-------------|------------------------|
    |-----------------|--------------|-------------|------------------------|
    
    
    
    |-----------------|----------------|--------------|---------------------|
    |---7-------8-----|---------5------|------7-------|---------------------|
    |---7-------7-----|---------6------|------7-------|---------------------|
    |---9-------9-----|---------7------|------9-------|----9--7-------------|
    |-----------------|----------------|--------------|----------10-9-7-----|
    |-----------------|----------------|--------------|-7---------------10-9|
    
    
    
    |----------------|----------|-----/15p14p12-|----------------------------
    |---7-------8----|----------|---------------|-15p14p1211----------------
    |---7-------7----|----------|---------------|-------------12p11p9--------
    |---9-------9----|----------|---------------|---------------------12p11p98
    |----------------|----------|-7~------------|----------------------------
    |----------------|----------|---------------|----------------------------
    
    
    Chorus
    
    |----------------------|-------------------|----------------------------|
    |----------------------|-------------------|----------------------------|
    |----9--------5--------|-4-----------------|-------9--------10----------|
    |----7--------7--------|-5--------7~--5h7--|-------7---------7----------|
    |-0-----0--0-----0--0--|----0--0-----------|-0--0-----0--0------0--0----|
    |----------------------|-------------------|----------------------------|
    
    
    
    |-------------------------|-------------------------|-------------------|
    |-------------------------|-------------------------|-------------------|
    |-7--------9--------------|-------9--------5--------|-4-----------------|
    |-9--------7--------------|-------7--------7--------|-5--------7~--5h7--|
    |----0--0-----0--0--0--0--|-0--0-----0--0-----0--0--|----0--0-----------|
    |-------------------------|-------------------------|-------------------|
    
    
    
    |-------------|------------------|-------------------------------------||
    |---6----5----|--5----3-----3----|-------------------------------------||
    |---7----5----|--5----4-----4----|-------play…
  • Вступительное соло 
    00:00
    E||--11-12-11-9-7--------16-14-12-11-9-7-6-4-|--6-7-11-11-12-11-9-7-6-4-4-4-6-4-3--|
    B|----8-9-11-----------------------------------------------|
    G----------------------------------------------|
    D----------------------------------------------|
    A----------------------------------------------|
    E----------------------------------------------|…
  • |----------12-|-17p12-------------12-------------------------------------
    |-------13----|-------13----12-13----13----------17-18p15----------15----
    |----14-------|----------14-------------14----13----------16----16-------
    |-------------|----------------------------14----------------18----------
    |-------------|----------------------------------------------------------
    |-------------|----------------------------------------------------------
    
    
    
    ---------------------|-12------------------------------------------------
    --15-------------12--|----13-----/15-13--------13/17-17------------------
    -----16-------13-----|-------14---------14--14----------19p17p16---------
    --------18-15--------|-------------------------------------------19p18p17
    ---------------------|---------------------------------------------------
    ---------------------|---------------------------------------------------
    
    
    
    ------------------|------------------------------------------------------
    ------------------|-----------13-17p13----------17-15--------------------
    ------------------|--------14----------14----14-------16----------16-----
    ------------------|-----14----------------14-------------18-15-18--------
    --20p19p17--------|------------------------------------------------------
    -----------20p19--|-17---------------------------------------------------
    
    
    
    --------------------|----------------12-17p12-------------------12h13p12-
    --18p15----------15-|-17p13-------13----------13----------12-15----------
    --------16----16----|-------14-14----------------14-13-14----------------
    -----------18-------|----------------------------------------------------
    --------------------|----------------------------------------------------
    --------------------|----------------------------------------------------
    
    
    
    ---------------------------|----------------------------------13-10h12-13
    --15p13p12-----------------|-13-12-13-12p10-13p10h12h13p12p10------------
    -----------14p13-----------|---------------------------------------------
    -----------------15-14-12--|---------------------------------------------
    ---------------------------|---------------------------------------------
    ---------------------------|---------------------------------------------
    
    
    
    --12-10-13-10h12-13-12-10--|---------------------------------12-8h10-12--
    ---------------------------|-12-8h10-12-10-8-12-8h10-12-10-8-------------
    ---------------------------|---------------------------------------------
    ---------------------------|---------------------------------------------
    ---------------------------|---------------------------------------------
    ---------------------------|---------------------------------------------
    
    
    
    --10-8-12-8h10-12-10----|-----------------------------10-6h8-10-8-6-10---
    ---------------------11-|-10-6h8-10-8-6-10-6h8-10-8-6--------------------
    ------------------------|------------------------------------------------
    ------------------------|------------------------------------------------
    ------------------------|------------------------------------------------
    ------------------------|------------------------------------------------
    
    
    
    --6h8-10-8-6--|----------------------------------------------------------
    --------------|-9-5h7-9-7-5-10-7-9-10-9-7-12-9h10-12-10-9-13-10-12-13-12-
    --------------|----------------------------------------------------------
    --------------|----------------------------------------------------------
    --------------|----------------------------------------------------------
    --------------|----------------------------------------------------------
    
    
    
    ------|-------------------------------------12-9-10-12-10-9-13-10-12-13--
    --10--|-14-10-12-14-12-10-15-12-14-15-14-12------------------------------
    ------|------------------------------------------------------------------
    ------|------------------------------------------------------------------
    ------|------------------------------------------------------------------
    ------|------------------------------------------------------------------
    
    
    
    --12-10-|-14-10-12-14-12-10-16-12-14-16-14-12-17-14-16-17-16-14-19-16-17-
    --------|----------------------------------------------------------------
    --------|----------------------------------------------------------------
    --------|----------------------------------------------------------------
    --------|----------------------------------------------------------------
    --------|----------------------------------------------------------------
    
    
    
    -19-17-16-|-19b(20)--rb19~---17-19-20-17-19-20-19-17-20-|-17-19-20-19----
    ----------|---------------------------------------------|----------------
    ----------|---------------------------------------------|----------------
    ----------|---------------------------------------------|----------------
    ----------|---------------------------------------------|----------------
    ----------|---------------------------------------------|----------------
    
    
    
    --22bf--rb22--22bf--22bf--22bf--|----------------------------|-----------
    --------------------------------|----------------------------|-----------
    --------------------------------|--5-----5--4~------4-----2--|----5------
    --------------------------------|--5-----5--5~------5-----2--|----5------
    --------------------------------|-----0----------0-----0-----|-0-----0---
    --------------------------------|----------------------------|-----------
    
    
    
    ------------------|---------------------|--------------------------------|
    ------------------|---------------------|-------3-----3-----3------------|
    --7------7-----2--|---/5----4~----------|----2---------------------------|
    --5------5-----3--|---/5----5~----------|-0--------0-----0---------------|
    ------0-----0-----|---------------/5---|-----------------------2p0------|
    ------------------|---------------------|----------------------------3---|…
  • Fig.1
    |----x-------xp.s.---|----------||-----------------------|--------------
    |----xp.s.---x-------|----------||-----------------------|--------------
    |---------------------|----------||o----------------------|--------------
    |---------------------|----------||o--0--3p0--0--2--0--0--|-5--0--0--3--0
    |---------------------|----------||-----------------------|--------------
    |---------------------|--3/153--||-----------------------|--------------
    
    
    
    -----------|-------------------------|------------------------|----------
    -----------|-------------------------|-3p1--------------------|----------
    -----------|-------------------------|-----2p0---5p3p2--------|----------
    --0--2--3--|-0--0--3--0--0--2--0--0--|---------3-------5p3p2--|-0--3--0--
    -----------|-------------------------|------------------------|----------
    -----------|-------------------------|------------------------|----------…
  • tune down 1/2 step
    
    
    |--------------------------------------11-13-15-13p11----------------------|
    |-----------------------------12-13-15----------------16p15p1312----------|
    |--------------------12-13-15-------------------------------------15-13p12-|
    |-----------12-13-15-------------------------------------------------------|
    |--15-14-15----------------------------------------------------------------|
    |--------------------------------------------------------------------------|…
  • tune down 1/2 step
    
    
    |----------7-------|------------------|--------------|--------------------|
    |--8---10----------|--10-----8--7-----|--------------|--------------------|
    |--9---------------|------------------|--9-----------|----7---------------|
    |--9---------------|------------------|--------------|--------------------|
    |--7---------------|------------------|--------------|--------------------|
    |------------------|------------------|--------------|--------------------|
    |…
  • tune to F:
    6=F
    5=Bb
    4=Eb
    3=Ab
    2=C
    1=F
    
    or capo at 1st fret and play up 1/2 step
    
    -------------------|------------------|---------2---3--|---4---------------|
    --8---------7---5--|---4------2----4--|---5------------|---5---------------|
    -------------------|------------------|----------------|---4---------------|
    -------------------|---4--------------|----------------|-------------------|
    --7----------------|----------0-------|----------------|-------------------|
    -------------------|------------------|---3------------|---4---------------|…
  • tune down 1/2 step
    
    
    drums
    |-------------|------------|-----------|-----------|--------------------|
    |-------------|--5---------|-----------|--5--------|--------------------|
    |-------------|-------5----|---7-------|-------5---|----3---------------|
    |-------------|------------|---0-------|-----------|--------------------|
    
    
    |-----------|---------|-----------------|------------------------------|
    |--5--------|---------|-----------------|------------------------------|
    |------5----|--7------|---(7)-----------|-------------(7)--------------|
    |-----------|--0------|---(0)-----------|------------------------------|
    
    
    Acoustic…
  • tune down 1/2 step
    
    
                       play 2times=========================================
    |----------------||------------------------------|----------------------
    |----------------||o---------4-----5-----2h4-----|-----4-----2----------
    |----------------||o------4-----4-----4----------|--4-----4-----5-4-2---
    |----0--2--3--2--||----2----------------------2--|----------------------…
  • w w 
    E---------------------5--9--12--17--16--14--12--------------------------
    B------------------5----------------------------15--14--12--10----------
    G---------------6-----------------------------------------------13------
    D------------7----------------------------------------------------------
    A---0-----7-------------------------------------------------------------
    E------9----------------------------------------------------------------
    
    
    h…
Наверх