Аккорды «Zac Brown Band»

Zac Brown Band
Zac Brown Band (сокр. ZBB, "Зак Браун Бэнд", англ. "Группа Зака Брауна") - американская кантри-группа из города Атланта, штат Джорджия. Состав группы: Зак Браун (лидирующий вокал, гитара), Джимми Де Мартини (скрипка, вокал), Джон Дрискелл Хопкинс (бас-гитара, вокал), Кой Боулз (гитара, орган), Крис Фрайар (барабаны) и Клэй Кук (гитара, орган, мандолина, педал-стил-гитар, вокал). Группа, добившаяся всеамериканской известности в 2008 году, до этого времени существовала как одна из наиболее часто… Читать полностью... Zac Brown Band (сокр. ZBB, "Зак Браун Бэнд", англ. "Группа Зака Брауна") - американская кантри-группа из города Атланта, штат Джорджия. Состав группы: Зак Браун (лидирующий вокал, гитара), Джимми Де Мартини (скрипка, вокал), Джон Дрискелл Хопкинс (бас-гитара, вокал), Кой Боулз (гитара, орган), Крис Фрайар (барабаны) и Клэй Кук (гитара, орган, мандолина, педал-стил-гитар, вокал). Группа, добившаяся всеамериканской известности в 2008 году, до этого времени существовала как одна из наиболее часто концертирующих команд (по 200 концертов ежегодно по всем Соединенным Штатам). С 2004 по 2008 год группе удалось самостоятельно продать 30 тысяч экземпляров своих ранних альбомов, выпущенных на независимых лейблах. Ранняя история Зак Браун, одиннадцатый из двенадцати детей в семье, вырос в г. Далонега, штат Джорджия. Начал играть на гитаре в тинейджерском возрасте. Прежде чем образовать группу в 2004 году, Зак несколько лет выступал как соло-артист, обладающий энциклопедическими познаниями в области поп-музыки. Первый альбом группы "Far From Einstyne" вышел в 2004 году, годом спустя записан второй - "Home Grown" (дата выхода - 16 декабря 2005 г.). Этот альбом назван так же, как детский некоммерческий лагерь, основанный Заком Брауном для "воспитания (в детях) индивидуальности, свободы, коллективизма, чувства социальной справедливости (...), а также обучения музыке и искусствам". Лагерь существовал на доходы от продажи альбомов. Зак Браун, объясняя свой филантропический порыв, говорил: "Я благодарен судьбе за то, что имею. И понимаю, что это - во многом аванс, дающий возможность быть в дороге (с концертами). Я всегда держу это в голове. Хочется оставить что-то хорошее после себя". Позже название "Home Grown" закрепилось и за звукозаписывающим лейблом Брауна. Во время гастрольных поездок по стране "Zac Brown Band" открывают концерты таких знаменитостей, как "Allman Brothers Band", Этты Джеймс, Би Би Кинга, "Lynyrd Skynyrd", Вилли Нельсона, "Sugarland", Трэвиса Тритта и "ZZ Top". 3 января 2007 года выходит концертный альбом "Live From The Rock Bus Tour". Контракт с Atlantic В 2008 году группа подписывает контракт с Live Nation Records и получает возможность выпускаться мэйджор-лейблом Atlantic. Первый сингл группы - песня "Chicken Fried" - была написана еще в 2003 году (авторы Зак Браун и Уайатт Дюретт), в тот период, когда Зак еще играл соло в одной из таверн Атланты. "ZBB" впервые записали эту песню для своего альбома "Home Grown", а в 2006 году версию этой песни записала группа "The Lost Trailers". Песня попала на кантри-радиостанции, хоть и совсем ненадолго: "The Lost Trailers" решили не выпускать ее в качестве сингла, когда узнали, что Зак Браун хочет выпустить "Cicken Fried" самостоятельно. Как бы то ни было, для своего дебюта на мэйджор-лейбле "Zac Brown Band" перезаписывают эту песню заново. Она попадает на радио в 2008 году и возглавляет кантри-чарты США, заняв также 20-е место в Billboard Hot 100. Это был первый дебютный сингл, возглавивший хит-парады музыки "кантри" с 2006 года. Альбом "The Foundation" (в названии - намек на "дело жизни" Зака - благотворительное общество) вышел 18 ноября 2008 года и дебютировал на 17-м месте в Billboard 200 и на третьем - в кантри-чарте. Только в январе 2009 года к группе присоединился нынешний шестой участник - мультиинструменталист Клэй Кук, известный больше всего по работе с Джоном Майером. Следующие синглы - "Whatever It Is" (2-е место в кантри-чарте, 26-е в Billboard Hot 100) и "Toes" (соответственно 1-е и 26-е места) - укрепили успех всего альбома - весной и летом 2009 года он вновь начал подниматься вверх в хит-парадах, в итоге достигнув 11-й строчки в Billboard 200 и 2-й - в списке кантри-альбомов (сентябрь 2009 года). На данный момент альбомом получен "платиновый" статус - продано более миллиона копий. 4 августа 2009 года выпущен концертный EP группы "Live From Bonnaroo" (20-е место в кантри-чарте и 95-е в Billboard 200). В сентябре 2009 года группа переиздает альбом "The Foundation" с бонус-треками. Стиль Музыка группы характеризуется гармоничным сплавом классического и современного кантри, а также высоким мастерством инструменталистов, которое еще более возросло с приходом Кука. Критики журнала "Биллбоард" отмечают безусловный талант Зака Брауна как вокалиста и сочинителя, но порой сетуют на недостаток оригинальности в темах песен и аранжировках. Вместе с тем, частые концерты по всем Соединенным Штатам, а также в Канаде, сформировали ZBB огромную армию фанатов, которая знала наизусть многие песни группы еще до их выхода на дисках. Награды В 2009 году "Zac Brown Band" удостоены пяти номинаций Ассоциации кантри-музыки - "лучшие дебютанты года", "вокальная группа года", "песня года", "сингл года" и "лучшее музыкальное видео года" за клип к "Chicken Fried". Кроме того, телекомпания CMT (Country Music Television) присвоила группе награду USA Weekend Breakthrough Video of the Year за песню "Chicken Fried". [править] Дискография (альбомы) 2004 - "Far From Einstyne" (выпущен самостоятельно); 2005 - "Home Grown" (выпущен самостоятельно); 2007 - "Live From Rock Bus Tour" (концертный альбом, лейбл Home Grown); 2008 - "The Foundation" (лейбл Atlantic/Home Grown/Big Picture); 2009 - "Live From Bonnaroo" (концертный EP, лейбл Atlantic/Home Grown/Big Picture); 2009 - "The Foundation" (переиздание с бонус-треками, лейбл Cracker Barrel). Скрыть...
Популярные аккорды Zac Brown Band:
алфавиту | просмотрам | случайно
  • Саро 2
     
    INTRO: A D A E A D A E A
    
    Pre-сноrus
    A
    I gот my тоеs in the water, 
    D
    ass in the sand
    A 
    nот a wоrrу in the wоrld 
         E 
    a соld beer in my hand
    D 	 	     E 
    life is gооd тоdау
     	 	   A
    life is…
  • Capo2/Intro | E B7 E A E B7 | Repeat 
    
    Chorus1:
    E
    Theres a place, 
    Where the boat leaves from
     			     B	
    It takes away, all of your big problems
    	E				A
    You got worries you can drop them in the blue ocean
    E…
  • (Verse 1&2)
         D          A           Bm              A
    She got eyes that cut you, like a knife, lips that taste like sweet red wine
           G           A         D    G A
    and her pretty legs, Go to heaven, every time...
    
    (repeat…
  • G
    You know I like my chicken fried
    D
    Cold beer on a Friday night
                     Gsus4
    A pair of jeans that fit just right
              G
    And the radio up
    G         D              C
    Well I was raised up beneath the…
  • CAPO 4
    INTRO - D
    
    D
    How come all the pretty girls like you are taken baby
    
    I've been looking for someone like you to save me
    
    Life's too easy to be so damn complicated
    
    Take your time and I'll be waitin'
    
    
    Chorus:…
  • Tuning: Standard
    You can use a capo on the 3rd fret if you want to be in the same key as the song,
    but it is not necessary.
    The intro makes up the majority of the song.
     
    Intro:
    e----------3------3---------3s5-----3-----3p0-----1----------1------1-----------|
    b------1------1------1------------1-----1--------1-----------------1------------|
    g--0---------------------0-----0-----------------------------2------------------|
    d-------------------------------------------------------------------------------|
    a-------------------------------------------------------------------------------|
    e----------------------------------------------------------1--------------------|
    
    e---------1----------0----------------------------------------------------------|
    b--1---------1--------------3p1-----1----------1------1-------------------------|
    g-----2----------2------2---------0-----------------0------0------0-------------|
    d----------------------------------------------2-----------------2--------------|
    a------------------------------------------3------------------------------------|
    e-------------------------------------------------------------------------------|
    
    e----------------------------------0---------------------------------------------|
    b----------0----------------------1----------------------------------------------|
    g-----------------2p0------0----0------------------------------------------------|
    d------0------0---------0-------0h2----------------------------------------------|
    a---------------------------------3-----------0--2--3----------------------------|
    e--3--------------------------------------3--------------------------------------|
    
    e----------3------3---------3s5-----3-----3p0-----1----------1------1-----------|
    b--------------1------1------------1-----1--------1-----------------1-----------|
    g-------------------------0-----0-----------------------------2-----------------|
    d-------------------------------------------------------------------------------|
    a-------------------------------------------------------------------------------|
    e----------------------------------------------------------1--------------------|
    
    e---------1----------0----------------------------------------------------------|
    b--1---------1--------------3p1-----1----------1-------------0------------------|
    g-----2----------2------2---------2-----------------2-------------0-------------|
    d----------------------------------------------2-------------0-------------2----|
    a------------------------------------------0------------------------------------|
    e---------------------------------------------------------3-------------1-------|
    
    e--------------------------0----------------------------------------------------|
    b--------------------------1----------------------------------------------------|
    g--1--------------1--1---0------------------------------------------------------|
    d------2------0----------2h2----------------------------------------------------|
    a--------------------------3-----------0--2--3----------------------------------|
    e----------3-----------------------3--------------------------------------------|…
  • Capo on 1
    
    Intro: Cadd9 G Cadd9 G Cadd9 G Em D
    
    	   Cadd9  D		   G
    She'd trade Colorado if he'd take her with him
            Cadd9         D        G
    Closes the door before the winter lets the cold in,
       Cadd9…
  • Capo 1
     
    C
    So we live in our old van
    C
    Travel all across this land
    F
    Me and you
    
    We'll end up hand in hand
    Somewhere down on the sand
    Me and you
    
    C
    Just as free
              F
    Free as we'll ever be…
  • Capo: 1
    
    Intro:
    D G D D A/D D
    
    Verse:
    D                    G           D
    I ride east every other Friday but if i had it my way
    D              A/D        D
    The day would not be wasted on this drive
    D…
  • Capo 3
     
    Intro: C C F G x2
    
      C       
    We never spoke a word 
           Am                          F         G
    But every thought she had I heard from across the room 
          C
    We were standing face to face…
  • Capo 1st fret
    Strumming Pattern- DDUUDU
    
    Intro: F# G C Am F# G C
    
    F#				G
    I'm on this train and I can't slow down and,
    C			Am
    Breaks are done and I'm running out,
    F#		G		C
    Of reasons to even stop me now,
    F#				
    And…
  • Song is played in E flat tuning 
    Intro: C C G
    e|-------------------------------------------------------------------------|
    B|-------------------------------------------------------------------------|
    G|---4h5p4p0----------0-----------0----------------------------------------|
    D|-------------------4-----2---0-------------------------------------------|
    A|-------------------------------------------------------------------------|
    E|------------------------------------3------------------------------------|…
  • Capo 1
    
    D
    I went down to Houston
        G         D
    And I stopped at San Antone
                            A
    And I passed up the station for the bus
           G      
    And I was tryin to find me somethin
        D    A…
  • (Capo on 1)
     
    Intro: D G G A D G A D
    
         G          D          A    
    You know my old car need washin,
            D 
    and the front yard needs a trim
         G          D           E   
    and the telephone keeps ringin',…
  • Capo 1
     
    C
    Fell to my knees with a knife in my back,
    Am
    Never thought you'd be the kind to Do something like that,
         F
    But you did
    G      C
    Cold hearted
    C
    You talked so sweet and your smell it made me weak
    Am
    And…
  • Capo on 1
    
    Intro: G D A Bm | G D G D A D
    
         G       D    A         Bm
    He was born in the woods, torn from his home.
             G       D         G       A
    Well, he was naked, and destined to be out on his own.…
  • Tunning: 1/2 step down
    
    E-----------------------------------------------------------------------------|
    B---------------3-33--3--1/3--1---------------------------------------3-0h1/3-|
    G---------------0-00--4--2/4--2-0--------------2-0----------------0---0-0h2/4-|
    D--------0-2p0--------------------2-0---0h2p0------2p0-------------2p0--------|
    A------2-----------------------------------------------2------2---------------|
    E--3-3----------------------------------------------------3-3---3-----3-------|
    
    E----------2------|
    B-1--1--1--3------|
    G-2--0--0--2------|
    D-2--0--2--0------|
    A-0--2--3---------|
    E-----------------|
    
    E-----------------------------------------------------------------------------|
    B---------------3-33--3--1/3--1---------------------------------------3-0h1/3-|
    G---------------0-00--4--2/4--2-0--------------2-0----------------0---0-0h2/4-|
    D--------0-2p0--------------------2-0---0h2p0------2p0-------------2p0--------|
    A------2-----------------------------------------------2------2---------------|
    E--3-3----------------------------------------------------3-3---3-----3-------|
    
    E-------------3---|
    B-1--1--1--3--3---|
    G-2--0--2--2--0---|
    D-2--0--2--0--0---|
    A-0--2--0--0--2---|
    E----------2--3---|
    
    G…
  • Capo 1 
     
     D                         G  
    Doing what you love has a high price to pay 
     A                                       D  
    Some put on a suit but he ran the other way 
     D…
  • Guitars tuned down a half step
    
    Intro: G C G D
           G C G D G
    
    G
    A man was bothering me today and I
    C
    wanted to tell him to Go away
    G                              D
    But I stood and listened to him anyway, okay.
    G
    He…
  • Capo 5 
    
    INTRO: G  D  Em  D }x2
    
    G       D         Em       D
    Little boy sitting on his daddy's knee
    G   D         Em     D
    In a circle full of drums and harmony
    G       D          Em  D
    His mother kneel down and…
  • Capo 1
     
    Intro: G - Em - Cadd9 - Am
    
    Verse 1:
    G             Em
    When they call your name
                  Cadd9 
    Will you walk right up
                  Am
    With a smile on your face
    G           Em
    Will you cower in…
  • Capo 4 
     
    D                G 
     I play the road,  
            A              D 
    And the highway is our song,  
              G               D 
    And every city's like the same three chords  
         Em          A…
  • Tunning: Half a step down.
    
    Intro: G C G 	G C G 
    G
    Cocaine flame in my bloodstream
     	      C
    Sold my coat when I hit Spokane
    Bought myself a hard pack of cigarettes
     	     G
    In the early mornin' rain
    G
    Lately…
Наверх