Аккорды «Zao»

Zao
Если Вы думаете, что "ЗАО" – это закрытое акционерное общество, то глубоко ошибаетесь. На самом деле "ZAO" – это американская команда с христианскими корнями, рубящая дикий металкор. Основал группу в середине 90-х годов барабанщик Джесс Смит, намеревавшийся замутить что-нибудь в духе "Earth crisis". В первоначальный состав также вошли гитарист Рой Гоуди, басист Мик Кокс и вокалист Эрик Ридер, быстренько замененный на Шауна Джонса. Записав пару сплитов (с "Outcast" и "Through and through") и альбом… Читать полностью... Если Вы думаете, что "ЗАО" – это закрытое акционерное общество, то глубоко ошибаетесь. На самом деле "ZAO" – это американская команда с христианскими корнями, рубящая дикий металкор. Основал группу в середине 90-х годов барабанщик Джесс Смит, намеревавшийся замутить что-нибудь в духе "Earth crisis". В первоначальный состав также вошли гитарист Рой Гоуди, басист Мик Кокс и вокалист Эрик Ридер, быстренько замененный на Шауна Джонса. Записав пару сплитов (с "Outcast" и "Through and through") и альбом "All else failed", "Zao" обратили на себя внимание со стороны сиэттлского лейбла "Tooth & Nail Records". Фирма подписала музыкантов на свой импринт "Solid state", специализировавшийся по хардкору и вскоре переиздала дебютный лонгплей с другой обложкой. Про вторую работу "Zao" кто-то из критиков написал – "их музыка настолько брутальна, что у меня чуть не треснула голова". В поддержку "The Splinter Shards The Birth Of Separation" группа провела гастроли, по окончании которых Смит с удивлением обнаружил, что все его соратники куда-то исчезли. Поскольку Джессу как истинному ударнику все было по барабану, он не стал впадать в панику и с легкостью собрал новый состав. На этот раз партнерами Смита стали гитаристы Бретт Детэр и Расс Когделл и вокалист Дэниэл Вейандт. Дэн оказался хорошим фронтменом – он пел с таким усердием, что казалось он изгоняет демонов и от этого зависит его жизнь. То, что в команде не было басиста, компенсировалось слаженной игрой двух гитаристов. На альбоме "Where Blood And Fire Bring Rest" коллектив несколько отклонился от христианской тематики, сделав песни более личностными. Выпуск пластинки "Zao" отметили гастролями с "Training for Utopia" и вместе с ними же потом выпустили сплит. Почти сразу же после этого Детэр ушел организовывать проект "Juliana theory", а его место занял Скотт Меллинджер, с которым Дэн и Расс играли в банде "Eight stars for Elijah". Следом наконец-то обнаружился и бас-гитарист, которым стал давний приятель Джесса Роб Хорнер. Записанный обновленным составом "Liberate Te Ex Inferis" принес группе самый большой концертный хит – "Savannah". Эта песня была посвящена взлету и падению одной порнозвезды. Следующую пластинку музыканты записывали втроем – Дэн, Скотт и Джесс. Альбом, озаглавленный "Self-Titled", был наполнен электронными экспериментами, мрачными звуковыми ландшафтами и мелодичными интерлюдиями. Любопытно, что на гастроли в поддержку "Self-Titled" группа отправилась с новым вокалистом Кори Дарстом. Этот тип пытался скопировать манеру Дэниэла, но энергии ему явно не хватало. В конце 2001-го Дэн вернулся на свое место, сначала в качестве гостя, а потом и насовсем. Снова в формате трио "Zao" отправились в студию, где под присмотром продюсера Барри Пойнтера записали альбом "Parade of Chaos". Попутно был перезаписан и "All else failed". В 2003-м в команду вернулся Роб Хорнер, а коллектив перебрался на лейбл "Ferret music". Далее в составе началась полная чехарда. Сначала Дэн сделал очередную попытку уйти, но его удалось вернуть. Пока с ним велись переговоры, Джесс, окруженный кучей сайд-проектов, решил завязать с "Zao". Его примеру последовал и Роб. В конечном итоге бас-гитара досталась Шауну Кошику, а барабаны – Стефену Пеку. Получив прилив свежей крови, группа выпустила амбициозный концептуальный альбом. Темой "The funeral of God" была избрана история о том, как Бог решил покинуть неблагодарное человечество. Скрыть...
Популярные аккорды Zao:
алфавиту | просмотрам | случайно
  • Tuning:  Drop C
    
    Intro: 4x Clean, but fuzzy 
    d|---------- 
    A|---------- 
    F|---------- 
    C|-3-1-0---- 
    G|-3-1-0-1b- 
    C|-3-1-0-0-- 
    
    Verse: (“Dear Tiffany, you’ve made me…”) 
    d|-------------- 
    A|-------------- 
    F|--------------…
  • Tuning:  Standard
    
    Intro: 
    E|------------------------------------------------------------------------------------------- 
    B|------------------------------------------------------------------------------------------- 
    G|-9-9-9--10-10-10--9-9-9--10-10-10----------------------------9-9-9-10-10-10--9-9-9-10-10-10…
  • Dropped C tuning
    
    Main: 4x
    Guitar 1:
    E-------------------------------------------------------------|
    B-------------------------------------------------------------|
    G------9--10----10------9--10----10-------9--9-9--9-5--5--5-5-|
    D-(0)----------------------------------7--7--7-7--7-3--3--3-3-|
    A-(0)--7--8-----8-------7--8-----8-----7--7--7-7--7-3--3--3-3-|
    E--0---0--0--0--0----0--0--0--0--0---0-7--7--7-7--7-3--3--3-3-|
    
    Guitar…
  • e-----------------------------------------------------------
    B---------0----------------0----------------0-----------0---
    G-----5-----7----------5-----5----------5-----5-------5---5-
    D---7---7-----5------7---7-----7------7---7-----7---5-------
    A-0--------------0-0-------------(0)8-------------8---------
    E-----------------------------------------------------------
    
    e--0-------------------------------------------------------
    B----3-------------0---------------0-----------------0-----
    G------5p4-----5-----5---------5-----5-----------5-----5---
    D------------7---7-----7-----7---7-----7-------7---7-----7-
    A----------0-------------0-0-------------(0)-8-------------
    E----------------------------------------------------------
    
    e-----------------------------------------------------------
    B------------0----------------------------------------------
    G--------0-----0--------------------------------------------
    D------4---4-----4------------------------------------------
    A--8-7-------------7----------------------------------------
    E-----------------------------------------------------------…
  • intro           (clean)
    ----------------------------------------------------------|
    ----------------------------------------------------------|
    ----------------------------------------------------------|
    ----------------------------------------------------------|
    ----0-----0-----0-----0--------0--------------------------|
    -5-----5-----5-----5-----5--------------------------------|
    
    
    ----------------------------------------------------------|
    ----------------------------------------------------------|
    ----------------------------------------------------------|
    ----------------------------------------------------------|
    ----8-----8-----8-----8-------8---------------------------|
    -5-----5-----5-----5-----5--------------------------------|
    
    
    chorus…
  • Tuning:  Drop C
    
    Guitar 1: 
    d|--------------------- 
    A|--------------------- 
    F|--------------------- 
    C|-0----1----8----1--3- 
    G|-0----1----8----1--3- 
    C|-0----1----8----1--3- 
    
    Guitar 2: 
    d|----------------------- 
    A|-----------------------…
  • DROP D TUNED
    
    It starts off with sliding up the drop D tuned string and then goes to:
    
    Riff A:
    D-0---------------0--1--3--1--0-----------0--0---0--1--3--1--0-|
    A---6-5-3h5-3-0-1-0--1--3--1--0-6-5-3h5-3-0--0---0--1--3--1--0-|
    D-----------------0--1--3--1--0-----------0--0---0--1--3--1--0-|
    G--------------------------------------------------------------|
    B--------------------------------------------------------------|
    E--------------------------------------------------------------|…
  • Tuning: Drop C
    
    Intro: Segue from intro
    Guitar 1 & 2:
    E|-------------- 
    B|-------------- 
    G|-------------- 
    D|-------------- 
    A|-5b--5b--5b-5- 
    E|-0---0---0--0- 
    
    Intro 2: Guitar 1 stays the same. Parenthesis means palm…
  • Tuning: Drop C (Drop all strings a full note, and then
    the bottom string another full note)
    Effects: Standard distortion pedals (Boss DS-1)
    Guitars: 2 guitars, With at least one of them being 24 frets
    
    Legend:  = Slide up
    	/…
  • Part 1
    E] -----------------------------------|
    B] -----------------------------------|
    G] -7-7-7-7-7-7-7-7-------------------|
    D] -5-5-5-5-5-5-5-5--8-8-8-8-8-8-8-8--| (repeats 4X)
    A] ------------------6-6-6-6-6-6-6-6--|
    E]…
  • Dropped C Tuning
    
    Riff 1        Guitar 2  X4   Guitar 1 X2
    e|------------------------------------------------------------------------------|
    B|------------------------------------------------------------------------------|
    G|------------------------------------------------------------------------------|
    D|---9--9--9--9----8--8--8------------7--7----13--------------------------------|
    A|------------------------------8--8--------------------------------------------|
    E|------------------------------------------------------------------------------|
    
    Riff…
  • Dropped C tuning
    
    
    D-------------------------------------------------|
    A---------------------------------1----------1----|
    F--------2------------2---------------2----------2|
    C------------3------------3-----------------------|riff…
  • (Also there are 2 guitars in this song.)
    Drop C Tuning(CGCFAD)
    
          E|-----------------------------------|        |--------------------------------------|
          B|-----------------------------------|        |--------------------------------------|…
  • Key: pm= palm mute
             *=Artificial harmonic
            -t- = palm muted triplet
             $= repeat
    
    Intro: A
            |--------------------------------------------------------------------|
            |--------------------------------------------------------------------|…
  • Tuning: Standard
    
    (I woke up one morning and he was dead)
    
       C    C#   C    C# D#
    G|-5----6----5----6--8-|
    D|-5----6----5----6--8-| Twice muted,then 4x full with two guitars
    A|-3----4----3----4--6-|
    E|---------------------|
    
    repeat…
Наверх