Аккорды «Zwan»

Zwan
Zwan – это проект Билли Коргэна (Billy Corgan), лидера одной из наиболее влиятельных рок-групп начала 90-х Smashing Pumpkins. Дебютный альбом Zwan получил название “Mary Star Of The Sea” и вышел 29 января. В состав группы помимо Коргэна вошли его бывший коллега по Smashing Pumpkins барабанщик Джимми Чемберлин (Jimmy Chamberlin), басистка Пэз Леншантин (Paz Lenchantin) из A Perfect Circle, гитаристы Дэвид Паджо (David Pajo) ex-Slint и Tortoise и Матт Суини (Matt Sweeney) ex-Chavez. Все пятеро участников… Читать полностью... Zwan – это проект Билли Коргэна (Billy Corgan), лидера одной из наиболее влиятельных рок-групп начала 90-х Smashing Pumpkins. Дебютный альбом Zwan получил название “Mary Star Of The Sea” и вышел 29 января. В состав группы помимо Коргэна вошли его бывший коллега по Smashing Pumpkins барабанщик Джимми Чемберлин (Jimmy Chamberlin), басистка Пэз Леншантин (Paz Lenchantin) из A Perfect Circle, гитаристы Дэвид Паджо (David Pajo) ex-Slint и Tortoise и Матт Суини (Matt Sweeney) ex-Chavez. Все пятеро участников группы поют. Сингл, предваряющий выход альбома, помимо песни “Honestly”, содержит еще и кавер классической композиции Iron Maiden «Number Of The Beast». Дебютные выступления «Zwan» состоялись без масштабного пиара, можно сказать под завесой тайны. Четыре концерта прошли в небольших клубах Лос Анджелеса и Сан-Диего, интересен и тот факт, что материал представленный на каждом концерте, был различным, данное обстоятельство продемонстрировало богатый материал группы, накопленный ее участниками за несколько месяцев существования. Несмотря на то, что»Number Of The Beast» гораздо тяжелее, чем то, что Коргэн делал раньше, в целом музыка Zwan не сильно отличаетя от творчества Smashing Pumpkins, разве что более ощутимым стало влияние панка. Видео на “Honestly” можно найти на официальном сайте Zwan. Также на нём размещены документальные съемки с концертов группы и творческий “манифест” Zwan… Скрыть...
Популярные аккорды Zwan:
алфавиту | просмотрам | случайно
  • Intro:
    ..Rhythm.
    F#m   C#m   B  *B
    F#m   C#m   B   B
    
    ..Lead.
    E|-----------------------------14p12------12----12h14---14b-14~---12--
    B|------------12-12h14--------------12-14----14-----------------------
    G|--9h11--------------------------------------------------------------
    D|--------------------------------------------------------------------
    A|--------------------------------------------------------------------
    E|--------------------------------------------------------------------…
  • Tuning:E
     
    Intro:
    
    D C# A
    
    G F# A
    
    D C# A
    
    G F# D
    
     
    
    D,                Dmaj7             A
    
    settle down, don't settle down without me, no, no
    
    G                 D              A
    settle down, i'll settle down for good, yeah
    
    D,…
  • Chord Chart:
    G D/F# Em D
    E-3----3---0---2--|
    B-3----3---0---3--|
    G-0----2---0---2--|
    D-0----0---2---0--|
    A-x----0---2------|
    E-3----2---0------|
    
    Opening
    
    Voice run through keyboard loop and voice pedal arranged for guitar.
    G1…
  • Intro
    
    G1 
    E-------------|-----------------| x2
    B-------10----|--------7--------|
    G-6/9----9----|-4------7--------|
    D-6/9----7----|-4------7--------|
    A-4/7----7----|-2------5--------|
    E-------------|-----------------|
    
    Verse…
  • Tuning:E
    
    Em D
    Em D
    A  A
    
    A
    empty-armed
    
    and half a soul to go
    
     
    
    Em            D
    and all i wanted
    
                         Em
    was you here next to me
    
    Em                    D
    a little sunshine and sympathy
    
    
    A
    now everybody…
  • Tuning:F#
     
    INTRO 
    A          Amaj7          A         Amaj7
     
    verse:
    -----
    A         Amaj7
    in overdrive
    A         Amaj7
    i search for life and feeling
    A         Amaj7
    no other ride
     
    bridge:
    ------
    Aadd4        E
    'cause…
  • Tuning:E
     
    Intro-
    Amaj7 Amaj+4 Fmin+11 E
     
    Amaj7
    Northern star
    Amaj+4
    Am I frightened?
    Fmin+11 E
    Where can I go to rest?
    Amaj7 
    I can’t sleep
    Amaj+4
    I’m still fighting
    Fmin+11 E
    Wait, don’t breathe
    Amaj+4 Fmin+11 E
    The time…
  • Tuning:E
    
    (E)new York town (B)wasn't mine
    (E)was it me, (B)or just my kind
    (A)spinning softly, (F#m)talking cheap
    (E)there’s no (B)place left to (A)be
    (E)but a road (B)that just goes (A)on (F#m) (E)to everyone (B)leaving…
  • Tuning: D A D G B E
    
    --INTRO
    
    |-------------------------------6----|
    |---3---3---3---0-------3------(6)---|
    |---------------------0-------0------|
    |-------------------3----------------|
    |-5---4---3---2---1--------/6--------|
    |------------------------------------|
    
    |------------------------------------|
    |---3---3---3---0-------3------------|
    |---------------------0--------------|
    |-------------------3----------------|
    |-5---4---3---2---1------------------|
    |-0----------------------------------|
    
    
    --VERSE
    
    |---------------------------------------------------------------|
    |---------------------------------------------------------------|
    |---------------------4-4-4-4-4-4-4-4---------------------------|
    |-0-0-------0-0-------4-4-4-4-4-4-4-4-5-5-5-5-7-7-7-7-0-0-------|
    |-0-0-5h7p5-0-0-5h7p5-2-2-2-2-2-2-2-2-5-5-5-5-7-7-7-7-0-0-5h7p5-|
    |-0-0-------0-0-----------------------5-5-5-5-7-7-7-7-0-0-------|
    
    |---------------------------------------------------------------------|
    |---------------------------------------------------------------------|
    |---------------------4-4-4-4-4-4-4-4-------------------------------9-|
    |-0-0-------0-0-------4-4-4-4-4-4-4-4-5-5-5-5-5-5-5-5-4-4-4-4-7-8-9-9-|
    |-0-0-5h7p5-0-0-5h7p5-2-2-2-2-2-2-2-2-5-5-5-5-5-5-5-5-4-4-4-4-7-8-9-7-|
    |-0-0-------0-0-----------------------5-5-5-5-5-5-5-5-4-4-4-4-7-8-9---|
    
    |---------------------------------------------------------------------|
    |---------------------------------------------------------------------|
    |---------------------4-4-4-4-4-4-4-4-------------------------------9-|
    |-0-0-------0-0-------4-4-4-4-4-4-4-4-5-5-5-5-5-5-5-5-4--/---7-8-9-9-|
    |-0-0-5h7p5-0-0-5h7p5-2-2-2-2-2-2-2-2-5-5-5-5-5-5-5-5-4--/---7-8-9-7-|
    |-0-0-------0-0-----------------------5-5-5-5-5-5-5-5-4--/---7-8-9---|…
  • Intro/Verse:
    e----------0-----------------------
    B------3-----3---3-----3-------3---
    G----2---------2-----0---0---0---0-
    D--0-----0---------2-------4-------
    A----------------------------------
    E----------------------------------
    
    e----------5---------------5-------
    B------3-----3---3-----3-----3---3-
    G----0---0-----0-----0---0-----0---
    D--5---------------5---------------
    A----------------------------------
    E----------------------------------
    
    here…
  • Tune guitar to:
    (E,a,d,g,b,e)
    
    intro and main riff (gtr.1)
    }--0-0--0-0-0--0--0-0--0-0-0-0-sl./-------------------------------------------{
    }--0-0--0-0-0--0--0-0--0-0-0-0-sl./-------------------------------------------{
    }--8-8--8-8-8--8--8-8--8h9-9-9-sl./-14-14--14-14-14-14--14--14-14-13-13-11----{
    }--9-9--9-9-9--9--9-9--9-9-9-9-sl./-14-14--14-14-14-14--14--14-14-14-14(14)---{
    }--7-7--7-7-7--7--7-7--7-7-7-7-sl./-12-12--12-12-12-12--12--12-12-12-12(12)---{
    }--*-*--*-*-*--*--*-*--*-*-*-*------------------------------------------------{…
  • Standard Tuning
    
    Intro, Verse, and Outro
    
         E     E5? A    Aadd9
    e|---0---------0------0-|
    B|---0---------2------2-|
    G|---1------4--2------4-|
    D|---2------2--0------2-|
    A|---2------2--0------0-|
    E|---0------0-----------|
    
    Chorus…
  • Intro:
    
    e---0--------0--------------0-------0-----(0)-------------
    B------4--------4-----------------0-------(0)-------------
    G---------2--------2---1/2-----/8-------9-11~~------------
    D---------------------------------------------------------
    A---------------------------------------------------------
    E---------------------------------------------------------
    
    e--------0----------0-------(0)---
    B--------0--------0---0-----(0)---
    G---9h11----11/13--------14/16----
    D---------------------------------
    A---------------------------------
    E---------------------------------
    
    B…
  • Tuning:E
    
    Intro:
    
    F#min6 Gadd6
     
    
    F#min6 Gadd6
    this man you love, this boy you hate
    
    F#min6 Gadd6
    the hills are his in all embrace
    
    F#min6 Gadd6
    enchanted and not soon lost
    
    F#min6 Gadd6
    this man you call with lover's draw
    
    F#min6…
Наверх